» » »

Gang Bang Tabs (ver.1)

Artists:  A B C D E F G H I J K L M N O P Q R S T U V W X Y Z # 

Gang Bang Tabs (ver.1)

Indochine
Rating:
0/5 (0 votes)
Tabs too difficult? Try these video lessons and learn fast.
                Voilà si il y à des modifs à faire n'hesitez pas à me le dire !!!


Intro + couplet
e|------------------------------------------------------------------------|
B|------------------------------------------------------------------------|
G|------------------------------------------------------------------------|   x6
D|-4-4-4-4-4-4-4-4--7-7-7-7-7-7-7-7--2-2-2-2-2-2-2-2--4-4-4-4-4-4-4--0----|
A|-4-4-4-4-4-4-4-4--7-7-7-7-7-7-7-7--2-2-2-2-2-2-2-2--4-4-4-4-4-4-4--0----|
E|-2-2-2-2-2-2-2-2--5-5-5-5-5-5-5-5--0-0-0-0-0-0-0-0--2-2-2-2-2-2-2--0----|

Chorus
e|----------------------------------------------------------------|
B|----------------------------------------------------------------|
G|-4-4-4-4-4-4-4-4-4---7-7-7-7-7-7-7-7-7--------------------------|
D|-4-4-4-4-4-4-4-4-4---7-7-7-7-7-7-7-7-7---7-7-7-7-7-7-7-7--------| x2
A|-2-2-2-2-2-2-2-2-2---5-5-5-5-5-5-5-5-5---7-7-7-7-7-7-7-7--------|
E|-----------------------------------------5-5-5-5-5-5-5-5--------|

Couplet
e|------------------------------------------------------------------------|
B|------------------------------------------------------------------------|
G|------------------------------------------------------------------------|   x4
D|-4-4-4-4-4-4-4-4--7-7-7-7-7-7-7-7--2-2-2-2-2-2-2-2--4-4-4-4-4-4-4--0----|
A|-4-4-4-4-4-4-4-4--7-7-7-7-7-7-7-7--2-2-2-2-2-2-2-2--4-4-4-4-4-4-4--0----|
E|-2-2-2-2-2-2-2-2--5-5-5-5-5-5-5-5--0-0-0-0-0-0-0-0--2-2-2-2-2-2-2--0----|


Chorus
e|-----------------------------------------------------------------|
B|-----------------------------------------------------------------|
G|-4-4-4-4-4-4-4-4-4---7-7-7-7-7-7-7-7-7---------------------------|
D|-4-4-4-4-4-4-4-4-4---7-7-7-7-7-7-7-7-7---7-7-7-7-7-7-7-7---------| x2
A|-2-2-2-2-2-2-2-2-2---5-5-5-5-5-5-5-5-5---7-7-7-7-7-7-7-7---------|
E|-----------------------------------------5-5-5-5-5-5-5-5---------|

Bridge             
e|---------------------------------------------------------------------------------------|
B|---------------------------------------------------------------------------------------|
G|---------------------------------------------------------------------------------------|   x2
D|-4-4-4-4-4-4-4-4-4-4-4-4-4-4--0--2-2-2-2-2-2-2-2--4-4-4-4-4-4-4-4-4-4-4-4-4-4--0-------|
A|-4-4-4-4-4-4-4-4-4-4-4-4-4-4--0--2-2-2-2-2-2-2-2--4-4-4-4-4-4-4-4-4-4-4-4-4-4--0-------|
E|-2-2-2-2-2-2-2-2-2-2-2-2-2-2--0--0-0-0-0-0-0-0-0--2-2-2-2-2-2-2-2-2-2-2-2-2-2--0-------|


Solo
e|---------------------------------------------------------------|
B|---------------------------------------------------------------|
G|---------------------------------------------------------------|   
D|---------------------------------------------------------------|
A|-8-8-8-8-7-7-7-7-8-8-8-8-7-7-7-7-8-8-8-8-7-7-7-7-7-5-7---------|
E|---------------------------------------------------------------|

Chorus
e|--------------------------------------------------------------|
B|--------------------------------------------------------------|
G|-4-4-4-4-4-4-4-4-4---7-7-7-7-7-7-7-7-7------------------------|
D|-4-4-4-4-4-4-4-4-4---7-7-7-7-7-7-7-7-7---7-7-7-7-7-7-7-7------| 
A|-2-2-2-2-2-2-2-2-2---5-5-5-5-5-5-5-5-5---7-7-7-7-7-7-7-7------|
E|-----------------------------------------5-5-5-5-5-5-5-5------|

Fin
e|-------------------------------------------------------------|
B|-------------------------------------------------------------|
G|-------------------------------------------------------------|   
D|-------------------------------------------------------------|
A|-8-8-8-8-7-7-7-7-8-8-8-8-7-7-7-7-8-8-8-8-7-7-7-7-7-5-7-------|
E|-------------------------------------------------------------|
            
Tabs too difficult? Try these video lessons and learn fast.


comments powered by Disqus
↑ Back to top | Tablatures and chords are parodies/interpretations of the original songs. You may use it for private study, scholarship, research or language learning purposes only