» » »

J'ai Demandé à La Lune Tabs (ver.3)

Artists:  A B C D E F G H I J K L M N O P Q R S T U V W X Y Z # 

J'ai Demandé à La Lune Tabs (ver.3)

Indochine
Rating:
0/5 (0 votes)

Tabs too difficult? Try these video lessons and learn fast.
                This tab version has the correct title and I tabbed the whole song.
I hope you'll enjoy it ! Jack-Jack

Intro
e||-------|-------|-------|-------|
B||-------|-------|-------|-------|
G||-------|-------|-------|-------| x4
D||-7-----|-/9----|-\4----|-\4----|
A||-7---7-|--7--7-|-\4--4-|-\4--4-|
E||-------|-------|-------|-------|

Riff
e||---5---|-------|---1---|---1---|
B||-------|---9---|-------|-------|
G||-------|-------|-------|-------| (1st time : x6)
D||-7---7-|/9---9-|\4---4-|-4---4-|
A||-7-----|-7-----|\4-----|-4-----|
E||-------|-------|-------|-------|

e||---1----|---1---|---1---|---1---|-----9----|----9----|---------|
B||--------|-------|-------|-------|----------|---------|----9----|
G||--------|-------|-------|-------|----------|---------|---------|
D||-/9---9-|-9---9-|\4---4-|-4---4-|-/11---11-|-11---11-|-\9------|
A||-/9-----|-9-----|\4-----|-4-----|-/11------|-11------|--7---7--|
E||--------|-------|-------|-------|----------|---------|---------|

Bridge
e||---------|-------|---------|-------|------|-----|------|----7-10-|
B||------10-|----10-|------10-|----10-|----8-|---8-|----8-|---8-----|
G||----10---|---9---|----10---|---9---|---9--|--7--|---9--|--7------|
D||-12------|-10----|-12------|-10----|-10---|-9---|-10---|-9-------|
A||---------|-------|---------|-------|------|-----|------|---------|
E||---------|-------|---------|-------|------|-----|------|---------|
            
Tabs too difficult? Try these video lessons and learn fast.




comments powered by Disqus
↑ Back to top | Tablatures and chords are parodies/interpretations of the original songs. You may use it for private study, scholarship, research or language learning purposes only