» » »

Marilyn Bass tabs (ver.1)

Artists:  A B C D E F G H I J K L M N O P Q R S T U V W X Y Z # 

Marilyn Bass tabs (ver.1)

Indochine
Rating:
0/5 (0 votes)

Tabs too difficult? Try these video lessons and learn fast.
                G|------------------------------------------------------------------ 
D|------------------------------------------------------------------ 
A|------------------------------------------------------------------ 
E|88-88-88-88-88-88-88-80-00-00-00-00-00-00-00-00-88-88-88-88-00-00- 

G|---------------------------| 
D|---------------------------| 
A|---------------------------| 
E|00-00-00-00-00-08----------| 

G|-----------------------------------------------------------------| 
D|-----------------------------------------------------------------| 
A|0-0-0-0---------0-0-0-0---------0-0-0-0--------------------------| 
E|--------1-1-1-1---------1-1-1-1---------1-1-1-1-3-3-3-3-2222222--| 

G|---------------------------------------------------------------| 
D|--------2-2-2-2---------2-2-2-2---------2-2-2-2-3-3-3-3-0-0-0-0| 
A|3-3-3-3---------3-3-3-3---------3-3-3-3------------------------| 
E|---------------------------------------------------------------|
            
Tabs too difficult? Try these video lessons and learn fast.


comments powered by Disqus
↑ Back to top | Tablatures and chords are parodies/interpretations of the original songs. You may use it for private study, scholarship, research or language learning purposes only