» » »

Legacy Tabs (ver.2)

Artists:  A B C D E F G H I J K L M N O P Q R S T U V W X Y Z # 

Legacy Tabs (ver.2)

Iron Maiden
Rating:
0/5 (0 votes)

Tabs too difficult? Try these video lessons and learn fast.
                (Intro)
Hello everyone!

This is only the intro version,
Haven’t got time to make the whole song

Hope you'll enjoy it :)

(Btw this is my first attempt at making a tab,
So don't get mad if did a mistake)




Riff 1

|------10-------10-------8-----8-------6-----6-----------|
|----------------------------7-------------5-------------|
|------------12------------------------------------------|
|---------12---------------7-------------7---------------|
|--------------------------------------------------------|
|--------------------------------------------------------|

|-------5-----5-------3-----3-------1-----1--------------|
|---------------------------------------0----------------|
|-----------7-----------2-5-----------3------------------|
|---------7----------------------------------------------|
|--------------------------------------------------------|
|--------------------------------------------------------|

|-------3-----3------------------------------------------|
|---------------------5-----5------5-----5---------------|
|---------2-5-------------5------------5-----------------|
|-----------------------7------------7-------------------|
|--------------------------------------------------------|
|--------------------------------------------------------|

|--------------------------------------------------------|
|-------6-----6-------5-----5----------------------------|
|-----------5-------------5--------5-----5---------------|
|---------7-------------7------------5-5-----------------|
|--------------------------------------------------------|
|--------------------------------------------------------|

|--------------------------------------------------------|
|-------5-----5-------6-----6------5-----5---------------|
|-----------5-------------5------------5------5-----5----|
|---------7-------------7------------7----------5-5------|
|--------------------------------------------------------|
|--------------------------------------------------------|


Bruce starts singing

riff 2: repeat this 6 times

|------10-------10-------8-----8-------6-----6-----------|
|----------------------------7-------------5-------------|
|------------12------------------------------------------|
|---------12---------------7-------------7---------------|
|--------------------------------------------------------|
|--------------------------------------------------------|

|-------5-----5-------3-----3-------1-----1--------------|
|---------------------------------------0----------------|
|-----------7-----------2-5-----------3------------------|
|---------7----------------------------------------------|
|--------------------------------------------------------|
|--------------------------------------------------------|

|-------3-----3------------------------------------------|
|---------------------5-----5----------------------------|
|---------2-5-------------5------------------------------|
|-----------------------7--------------------------------|
|--------------------------------------------------------|
|--------------------------------------------------------|


Riff 3


|--------------------------------------------------------|
|-------5-----5-------6-----6------5-----5---------------|
|-----------5-------------5------------5------5-----5----|
|---------7-------------7------------7----------5-5------|
|--------------------------------------------------------|
|--------------------------------------------------------|
                            Only time will        tell...
|--------------------------------------------------------|
|-------5-----5-------6-----6------5-----5--------3------|
|-----------5-------------5------------5----------2------|
|---------7-------------7------------7------------0------|
|-------------------------------------------------0------|
|--------------------------------------------------------|



To get the timing right you will have to listen to the song.



peace..
            
Tabs too difficult? Try these video lessons and learn fast.


comments powered by Disqus
↑ Back to top | Tablatures and chords are parodies/interpretations of the original songs. You may use it for private study, scholarship, research or language learning purposes only