» » »

Pilgrim Bass tabs (ver.1)

Artists:  A B C D E F G H I J K L M N O P Q R S T U V W X Y Z # 

Pilgrim Bass tabs (ver.1)

Iron Maiden
Rating:
0/5 (0 votes)

Tabs too difficult? Try these video lessons and learn fast.
                -----------------------------------------------------------
               THE PILGRIM - Iron Maiden
-----------------------------------------------------------


Tuning: Standard

                
             0:02
G|--9-9-9----5-5-5----7-7-7----9-9------|
D|--9-9-9----5-5-5----7-7-7----9-9------|
A|--7-7-7----3-3-3----5-5-5----7-7-7-5--|
E|--------------------------------------|

G|--9-9-9----5-5-5----7-7-7-------------|
D|--9-9-9----5-5-5----7-7-7----7-7------|
A|--7-7-7----3-3-3----5-5-5----7-7------|
E|-----------------------------5-5-5-3--|

G|--9-9-9----5-5-5----7-7-7----9-9------|
D|--9-9-9----5-5-5----7-7-7----9-9------|
A|--7-7-7----3-3-3----5-5-5----7-7-7s5--|
E|--------------------------------------|

G|--9-9-9----5-5-5----7-7-7-------------|
D|--9-9-9----5-5-5----7-7-7----7--------|
A|--7-7-7----3-3-3----5-5-5----7--------|
E|-----------------------------5--------|
             0:23
G|--------------------------------------|
D|--------------------------------------|
A|--7-7-7-7-7-7-7-7-7-7-7-7-7-7-7-7-7---|
E|--------------------------------------|
             0:28
G|--------------------------------------|
D|--------------------------------------|
A|7-7-7-7-7-7-7--3-3-3-3-3-3-3----------|
E|--------------------------------------|

G|--------------------------------------|
D|--------------------------------------|
A|5-5-5-5-5-----------7-7-7-7-7-7-7-----|
E|----------5-5-5-5-5-------------------|

G|--------------------------------------|
D|--------------------------------------|
A|7-7-7-7-7-7-7--3-3-3-3-3-3-3----------|
E|--------------------------------------|

G|--------------------------------------|
D|--------------------------------------|
A|-------------------5-5-7-7-7-7-7-7-7--|
E|5-5-5-5-5-3-3-7-7---------------------|




Pre Chorus
             0:47
G|--------------------------------------------------|
D|--------------------------------------------------|
A|7-7-7-7-7-7-7--3-3-3-3-3-3-3--5-5-5-5-5-----------|
E|----------------------------------------7-7-7-7-7-|

G|----------------------------------------|
D|----------------------------------------|
A|3-3-3-3-3--5-5-5-5-5--7-7-7-7-7-7-7-7-7-|
E|----------------------------------------|

G|--------------------------------------------------|
D|--------------------------------------------------|
A|7-7-7-7-7-7-7--3-3-3-3-3-3-3--5-5-5-5-5-----------|
E|----------------------------------------7-7-7-7-7-|

G|--------------------------------------------------|
D|--------------------------------------------------|
A|0-0-0-0-0-0-0-0-0--3-3-3--5-5-5--7-7-7-7-7-7-7-7-7|
E|--------------------------------------------------|

Chorus
             1:06
G|---------------------------------------------------|
D|-7-7-7-77-77-7-7-7---------------------------------|
A|-------------------8-8-8-88-8-8--------------------|X2
E|--------------------------------10-10-10-10-10-10--|
Interlude
             1:26
G|----------------------------------|
D|----------------------------------|
A|-7-777-77-7777-77-7777-77-7888-7--|X2
E|----------------------------------|
             1:36
G|----------------------------------|
D|----------------------------------|
A|-3-333-33-3333-33-3333-33-3444-3--|X2
E|----------------------------------|

Verse 2
             1:46
G|--------------------------------------|
D|--------------------------------------|
A|7-7-7-7-7-7-7--3-3-3-3-3-3-3----------|
E|--------------------------------------|

G|--------------------------------------|
D|--------------------------------------|
A|5-5-5-5-5-----------7-7-7-7-7-7-7-----|
E|----------5-5-5-5-5-------------------|

G|--------------------------------------|
D|--------------------------------------|
A|7-7-7-7-7-7-7--3-3-3-3-3-3-3----------|
E|--------------------------------------|

G|--------------------------------------|
D|--------------------------------------|
A|-------------------5-5-7-7-7-7-7-7-7--|
E|5-5-5-5-5-3-3-7-7---------------------|
          
         Pre Chorus
             2:05
G|--------------------------------------------------|
D|--------------------------------------------------|
A|7-7-7-7-7-7-7--3-3-3-3-3-3-3--5-5-5-5-5-----------|
E|----------------------------------------7-7-7-7-7-|



G|----------------------------------------|
D|----------------------------------------|
A|3-3-3-3-3--5-5-5-5-5--7-7-7-7-7-7-7-7-7-|X2
E|----------------------------------------|

             Chorus
              2:26
G|---------------------------------------------------|
D|-7-7-7-77-77-7-7-7---------------------------------|
A|-------------------8-8-8-88-8-8--------------------|X2
E|--------------------------------10-10-10-10-10-10--|
              2:44
G|----------------------------------|
D|----------------------------------|
A|-7-777-77-7777-77-7777-77-7888-7--|X2
E|----------------------------------|
                 
G|----------------------------------|
D|----------------------------------|
A|-3-333-33-3333-33-3333-33-3444-3--|X2
E|----------------------------------|
              3:04
G|----------------------------------|
D|----------------------------------|
A|-3-333-33-3333-33-3333-03-3444----|X4
E|----------------------------------|
              3:24
G|--------------------------------------------------|
D|--------------------------------------------------|
A|7-7-7-7-7-7-7--3-3-3-3-3-3-3--5-5-5-5-5-----------|
E|----------------------------------------7-7-7-7-7-|

G|----------------------------------------|
D|----------------------------------------|
A|3-3-3-3-3--5-5-5-5-5--7-7-7-7-7-7-7-7-7-|X2
E|----------------------------------------|
               3:42
G|---------------------------------------------------|
D|-7-7-7-77-77-7-7-7---------------------------------|
A|-------------------8-8-8-88-8-8--------------------|X4
E|--------------------------------10-10-10-10-10-10--|

               4:20
G|----------------------------------|
D|----------------------------------|
A|-7-777-77-7777-77-7777-77-7888-7--|X2
E|----------------------------------|

G|----------------------------------|
D|----------------------------------|
A|-3-333-33-3333-33-3333-33-3444-3--|X2
E|----------------------------------|


               4:37
G|--9---9----5-5-5----7---7----9-9------|
D|--9---9----5-5-5----7---7----9-9------|
A|--7-777----3-3-3----5-555----7-7-7-7--|
E|--------------------------------------|

G|--9-9-9----5-5-5----7-7-7-------------|
D|--9-9-9----5-5-5----7-7-7----7-7------|
A|--7-7-7----3-3-3----5-5-5----7-7------|
E|-----------------------------5-5-5-5--|

G|--9-9-9----5-5-5----7-7-7----9-9------|
D|--9-9-9----5-5-5----7-7-7----9-9------|
A|--7-7-7----3-3-3----5-5-5----7-7-777--|
E|--------------------------------------|

G|--9-9-9----5-5-5----7-7-7-------------|
D|--9-9-9----5-5-5----7-7-7----7--------|
A|--7-7-7----3-3-3----5-5-5----7--------|
E|-----------------------------5--------|




| / slide up
| \ slide down
| h hammer-on
| p pull-off
| ~ vibrato
| + harmonic
| x Mute note
===========================================================
            
Tabs too difficult? Try these video lessons and learn fast.


comments powered by Disqus
↑ Back to top | Tablatures and chords are parodies/interpretations of the original songs. You may use it for private study, scholarship, research or language learning purposes only