» » »

Fortunate Fool Tabs (ver.1)

Artists:  A B C D E F G H I J K L M N O P Q R S T U V W X Y Z # 

Fortunate Fool Tabs (ver.1)

Jack Johnson
Rating:
0/5 (0 votes)

Tabs too difficult? Try these video lessons and learn fast.
                note: When you get into the verse, keep in mind he palm mutes his guitar very quickly, and has the reverb up on his amp.
/=slide
P.M.= Palm Mute

Intro:
e------7/9/7------4/7/4-------3/5/3-------2/4/2---|
B-------------------------------------------------|
G-------------------------------------------------|
D-------------------------------------------------|
A-------------------------------------------------|
E---7---------4-----------3-----------2-----------|


Verse(VERY quickly P.M.)

e---7--4----|
B---7--4----|
G---8--5----| Repeat
D---9-------|
A-----------|
E-----------|
 
Pre-Chorus(P.M.)

e---4---2----Optional:--5---|
B---4---2---------------5---|
G---5---3---------------6---|
D-------4---------------7---|
A---------------------------|
E---------------------------|


Chorus(P.M.)

e---7-7--4-4--2-2---|
B---7-7--4-4--2-2---|
G---8-8--5-5--3-3---|
D---9-9-------4-4---|
A-------------------|
E-------------------|


Well this about it, I think u guys can figure out all the slides by ur self(they're easy) but not as easy to type and I'm tired ENJOY!
            
Tabs too difficult? Try these video lessons and learn fast.


comments powered by Disqus
↑ Back to top | Tablatures and chords are parodies/interpretations of the original songs. You may use it for private study, scholarship, research or language learning purposes only