>
 >
Gone 3

Gone 3 Guitar Tabs

Jack Johnson - Gone 3 chords, tabs, tablatures, lyrics

Guitar lessons | Add/correct | Request | Top 50 tabs Artists:  A B C D E F G H I J K L M N O P Q R S T U V W X Y Z 0-9

Gone 3 Guitar Tabs – Jack Johnson

CD, Sheet music, Poster

Do you like Gone 3? Share with your friends now
Bass TabsChordsChords v2TabsTabs v2Tabs v3Tabs v4Tabs v5Ukulele
First off, I must give credit where its due. This is based off of ZososoZ's Tab,
however I had a discrepancy with the notes played. I think that you play the 1st,
2nd, & 3rd strings more. I also agree with RalfE that there is an extra open note
that is played but open D does not sound correct. So here is my version of it. And
it sounds pretty flawless to me. This can also be played with the Black-Eyed Peas'

Intro:
e--------------------------------------------------------------------------|
B------9x-------5x-------9x-------5x-------9x-------5x-------9x-------5x---|
G------9x-------6x-------9x-------6x-------9x-------6x-------9x-------6x---|
D----9--x-----6--x-----9--x-----6--x-----9--x-----6--x-----9--x-----6--x---|
A--7------0-4------0-7------0-4------0-7------0-4------0-7------0-4------0-|
E--------------------------------------------------------------------------|

Verse 1: 

             Look at all those fancy clothes
e------------------------4-x-------------------------5-x-------------------|
B--------9-x-------------4-x-------------5-x---------5-x-------------------|
G--------9-x-----------5---x-------------6-x-------6---x-------------------|
D------9---x---------------------------6---x-------------------------------|
A----7--------0-------------------0--4--------------------0----------------|
E--------------------4------------------------0-5--------------------------|

             but these could keep us warm just like those
e--------------------------4-x--------------------------------5-x----------|
B--------9-x---------------4-x---------------5-x--------------5-x----------|
G--------9-x-------------5---x---------------6-x------------6---x----------|
D------9---x-------------------------------6---x---------------------------|
A----7--------------------------------0--4-------------------------0-------|
E-------------0--------4-------------------------------0--5----------------|

              And what about your soul? Is it cold?    Is it
e---------------------4-x-----------------------------5-x------------------|
B--------9-x----------4-x---------------5-x-----------5-x------------------|
G--------9-x--------5---x---------------6-x---------6---x------------------|
D------9---x--------------------------6---x--------------------------------|
A----7---------------------------0--4----------------------0---------------|
E-------------0---4----------------------------0--5------------------------|

     straight from the mold and ready to be sold?
e--------9----------------9--x-------7-x---------7-x-----------------------|
B--------10-x-------------10-x-------7-x---------7-x-----------------------|
G------9----x-----------9----x-----8---x-------8---x-----------------------|
D--------------------------------------------------------------------------|
A--------------------------------------------------------------------------|
E----9--------------9-9--------0-7---------7-7---------0-------------------|

       And cars and phones and diamond rings,        bling   bling 
e-----------------------4-x-----------------------------5-x----------------|
B--------9-x------------4-x------------------5-x--------5-x----------------|
G--------9-x----------5---x------------------6-x------6---x----------------|
D------9---x-------------------------------6---x---------------------------|
A----7--------------------------------0--4-------------------0-------------|
E---------------0---4-----------------------------0-5----------------------|
  
                  Those are only removable things
e-----------------------4-x-----------------------------5-x----------------|
B--------9-x------------4-x-------------5-x-------------5-x----------------|
G--------9-x----------5---x-------------6-x-----------6---x----------------|
D------9---x--------------------------6---x--------------------------------|
A----7---------------------------0--4------------------------0-------------|
E---------------0---4-----------------------------0-5----------------------|

               And what about your mind does it shine or
e-----------------------4-x-------------------------5-x--------------------|
B--------9-x------------4-x-------------5-x---------5-x--------------------|
G--------9-x----------5---x-------------6-x-------6---x--------------------|
D------9---x--------------------------6---x--------------------------------|
A----7---------------------------0--4--------------------0-----------------|
E---------------0---4-------------------------0-5--------------------------|

        are there things that concern you more than your time
e--------9----------------9--x---------------7-x----------7-x--------------|
B--------10-x-------------10-x---------------7-x----------7-x--------------|
G------9----x-----------9----x-------------8---x--------8---x--------------|
D--------------------------------------------------------------------------|
A--------------------------------------------------------------------------|
E----9--------------9-9---------------0-7-----------7-7---------0----------|

Chorus: 

        Gone,   going,          gone everything gone give a 
e-----------------------7-x-------------------------5-x--------------------|
B--------9-x------------7-x-------------5-x---------5-x--------------------|
G--------9-x----------8---x-------------6-x-------6---x--------------------|
D------9---x--------------------------6---x--------------------------------|
A----7---------------------------0--4--------------------0-----------------|
E---------------0---7-------------------------0-5--------------------------|

    Damn      gone be the birds when they don't wanna sing      Gone
e-----------------------7-x-------------------------------5-x--------------|
B--------9-x------------7-x--------------5-x--------------5-x--------------|
G--------9-x----------8---x--------------6-x------------6---x--------------|
D------9---x---------------------------6---x-------------------------------|
A----7----------------------------0--4--------------------------0----------|
E---------------0---7-------------------------------0-5--------------------|

    people                    all awkward with their things,   gone
e-----------------------7-x-------------------------------5-x--------------|
B--------9-x------------7-x-----------5-x-----------------5-x--------------|
G--------9-x----------8---x-----------6-x---------------6---x--------------|
D------9---x------------------------6---x----------------------------------|
A----7-------------------------0--4-----------------------------0----------|
E---------------0---7-------------------------------0-5--------------------|

Bridge:
e--------------------------------------------------------------------------|
B------9x-------5x-------9x-------5x---------------------------------------|
G------9x-------6x-------9x-------6x---------------------------------------|
D----9--x-----6--x-----9--x-----6--x---------------------------------------|
A--7------0-4------0-7------0-4--------------------------------------------|
E--------------------------------------------------------------------------|

Verse 2:

            Look at you out to make a deal 
e------------------------4-x-------------------------5-x-------------------|
B--------9-x-------------4-x-------------5-x---------5-x-------------------|
G--------9-x-----------5---x-------------6-x-------6---x-------------------|
D------9---x---------------------------6---x-------------------------------|
A----7--------0-------------------0--4--------------------0----------------|
E--------------------4------------------------0-5--------------------------|

             you try to be appealing, but you lose your appeal 
e--------------------------4-x----------------------------------5-x--------|
B--------9-x---------------4-x----------------5-x---------------5-x--------|
G--------9-x-------------5---x----------------6-x-------------6---x--------|
D------9---x--------------------------------6---x--------------------------|
A----7---------------------------------0--4--------------------------0-----|
E-------------0--------4---------------------------------0--5--------------|

  
              And what about those shoes you're in today   they'll do no 
e---------------------4-x-------------------------------5-x----------------|
B--------9-x----------4-x---------------5-x-------------5-x----------------|
G--------9-x--------5---x---------------6-x-----------6---x----------------|
D------9---x--------------------------6---x--------------------------------|
A----7---------------------------0--4------------------------0-------------|
E-------------0---4------------------------------0--5----------------------|

     good    on the bridges you've burnt along the way. Oh 
e--------9-------------9--x-------------7-x-----------7-x------------------|
B--------10-x----------10-x-------------7-x-----------7-x------------------|
G------9----x--------9----x-----------8---x---------8---x------------------|
D--------------------------------------------------------------------------|
A--------------------------------------------------------------------------|
E----9-----------9-9--------------0-7-----------7-7---------0--------------|

          you      willing to sell  anything     gone with your  
e-----------------------7-x-------------------------5-x--------------------|
B--------9-x------------7-x-------------5-x---------5-x--------------------|
G--------9-x----------8---x-------------6-x-------6---x--------------------|
D------9---x--------------------------6---x--------------------------------|
A----7---------------------------0--4--------------------0-----------------|
E---------------0---7-------------------------0-5--------------------------|

     herd     leave your footprints, well shame them with our words   gone
e-----------------------7-x---------------------------------------5-x------|
B--------9-x------------7-x-------------------5-x-----------------5-x------|
G--------9-x----------8---x-------------------6-x---------------6---x------|
D------9---x--------------------------------6---x--------------------------|
A----7---------------------------------0--4----------------------------0---|
E---------------0---7---------------------------------------0-5------------|

    people              all careless and consumed, gone
e--------------------7-x-------------------------5-x-----------------------|
B--------9-x---------7-x---------5-x-------------5-x-----------------------|
G--------9-x-------8---x---------6-x-----------6---x-----------------------|
D------9---x-------------------6---x---------------------------------------|
A----7--------------------0--4-------------------------0-------------------|
E-------------0--7------------------------0--5-----------------------------|

Chorus: 

        Gone,   going,          gone everything gone give a 
e-----------------------7-x-------------------------5-x--------------------|
B--------9-x------------7-x-------------5-x---------5-x--------------------|
G--------9-x----------8---x-------------6-x-------6---x--------------------|
D------9---x--------------------------6---x--------------------------------|
A----7---------------------------0--4--------------------0-----------------|
E---------------0---7-------------------------0-5--------------------------|

    Damn      gone be the birds when they don't wanna sing      Gone
e-----------------------7-x-------------------------------5-x--------------|
B--------9-x------------7-x--------------5-x--------------5-x--------------|
G--------9-x----------8---x--------------6-x------------6---x--------------|
D------9---x---------------------------6---x-------------------------------|
A----7----------------------------0--4--------------------------0----------|
E---------------0---7-------------------------------0-5--------------------|

    people                    all awkward with their things,       gone
e-----------------------7-x-------------------------------5-x--------------|
B--------9-x------------7-x-----------5-x-----------------5-x--------9-----|
G--------9-x----------8---x-----------6-x---------------6---x--------9-----|
D------9---x------------------------6---x----------------------------9-----|
A----7-------------------------0--4--------------------------------7-------|
E---------------0---7-------------------------------0-5--------------------|





Comments


Popular Jack Johnson tabs & chords
Better Together 9 Chords
The Love Boat Chords
You And Your Heart 3 Chords
You Remind Me Of You Chords
From The Clouds 2 Tabs
Good People 1 Tabs
If I Could Tabs
If I Had Eyes 2 Tabs
Middle Man Tabs
While We Wait Tabs


Song lyrics



↑ Back to top | Tablatures and chords are parodies/interpretations of the original songs. You may use it for private study, scholarship, research or language learning purposes only
© 2014 AZChords.com Contact us | Privacy policy | DMCA | Add/correct tabs | Request tabs | Top 50 tabs