>
 >
Its All Understood

Its All Understood Bass Tabs

Jack Johnson - Its All Understood chords, tabs, tablatures, lyrics

Guitar lessons | Add/correct | Request | Top 50 tabs Artists:  A B C D E F G H I J K L M N O P Q R S T U V W X Y Z 0-9

Its All Understood Bass Tabs – Jack Johnson

CD, Sheet music, Poster

Do you like Its All Understood? Share with your friends now
Bass TabsChordsChords v2Ukulele
Intro :31                       x2
G --------------------------------||
D .----------------------(9)-9---.||
A .-------------------------9----.||
D -5-5---0-0---4-4---9-9----------||

Verse 1 :47              x3
G -------------------------|--------------------------------------||
D .-----------------------.|-----------------------(9)--9---------||
A .-----------------------.|--------------------------9-----------||
D -5-5---0-0---4-4---9-9---|-5-5---0-0---4-4---9-9----------------||

Chorus 1:19                     x3
G --------------------------------||
D .------------------------------.||
A .------------------------------.||
D -5----0-0----4----9-------------||

After Chorus 1:43
G ----------------------------------------------------------------||
D ---------------------------------------------9-9---9------------||
A -------------------------------------------------9--------------||
D -5.----0.----4.----9.----5.----0.----4.---9.--------------------||

Verse 2 1:59
G ----------------------------------------------------------------||
D -------------------9-9------------------------------------------||
A ----------------------------------------------------------------||
D -5-5---0-0---4-4---------5-5---0-0---4-4----------5-5---0-0---4-||

G ----------------||
D -----9--9-9---9-||
A ------------9---||
D -4--------------||

Chorus 2:23                     x3
G --------------------------------||
D .------------------------------.||
A .------------------------------.||
D -5-----0-0---4-----9------------||

Verse 3 2:46            x2
G ------------------------|---------------------------------------||
D .----------------------.|----------------------(9)--9-----------||
A .----------------------.|-------------------------9-------------||
D -5-5---0-0---4-4---9-9--|-5-5---0-0---4-4--9-9------------------||

Break 3:10
G ----------------||
D ----------------||
A ----------------||
D -5----0----4----||

Outro 3:34     ...repeat until end
G --------------------------------||
D .------------------------------.||
A .------------------------------.||
D -5----0-0---4----9--------------||





Comments


Popular Jack Johnson tabs & chords
Sexi Plexi Bass Tabs
Cupid Chords
Radiate 1 Chords
Sitting Waiting Wishing Live Chords
Mud Football 1 Tabs
No Other Way 8 Tabs
Dreams Be Dreams Ukulele
F Stop Blues Ukulele
I Know Ukulele
Talk Of The Town Ukulele


Song lyrics



↑ Back to top | Tablatures and chords are parodies/interpretations of the original songs. You may use it for private study, scholarship, research or language learning purposes only
© 2014 AZChords.com Contact us | Privacy policy | DMCA | Add/correct tabs | Request tabs | Top 50 tabs