» » »

Supposed To Be Tabs (ver.1)

Artists:  A B C D E F G H I J K L M N O P Q R S T U V W X Y Z # 

Supposed To Be Tabs (ver.1)

Jack Johnson
Rating:
0/5 (0 votes)

Tabs too difficult? Try these video lessons and learn fast.
                Tuning: Standard


Well, I was all ready to tab this song when i checked to make sure that there wasn't
already a tab up for this song (only 1 day after the CD came out).

Well, as you've probably seen, the chords for this song have already been written out,
and that chord tab is very accurate, however, the subtle nuances of the song must be
explored.

So, the Verse Chords can be Played Basically 2 ways, depending on you're preference.
So here it is:

(as weird as this sounds, if the part below is played quickly enough, it works.)

Main Riff (not played until 2nd Verse)

e|-----------------------------------------------------------------------------|
B|-----------------------------------------------------------------------------|
G|-----------------------------------------------------------------------------|
D|--------------------------6--------------------------------------------------|
A|-------------------7--9------9--7--------------------------------------------|
E|---------7--7--9--------------------9----------------------------------------|

         e|-----------------------------------------------------------------------------|
         B|---------------------------2-----------2-------------------------------------|
         G|---1----------------------2-----1-2- 0---------------------------------------|
         D|---2----------------------2-----2-2- 0---------------------------------------|
         A|---2-----------------------------2-2- 2--------------------------------------|
         E|----------------------------------------3------------------------------------|

Chords   E                             A    E A/E G (or A/G)

            Maybe It's Up in the Stars
         e|----------------------------------5------------------------------------------|
         B|---------------------------2--5----------------------------------------------|
         G|---1----------------------2--------------------------------------------------|
         D|---2----------------------2--------------------------------------------------|
         A|---2-------------------------------------------------------------------------|
         E|-----------------------------------------------------------------------------|
                E                               A
           Maybe it's under the sea
              E                                 A    E A/E G (or A/G)
            Maybe it's not very far
             F#m                                        A            E    E/A
            Maybe this is how it's supposed to be
              F#m                                        A            E
            Maybe this is how it's supposed to be
(Main Riff is now played over Chords)
              E                                    A    E A/E G (or A/G)
           Maybe it's trapped in a jar
              E                                 A
            Something We've already seen
             E                                    A    E A/E G (or A/G)
           Maybe it's nowhere at all
e|-----------------------------------------------------------------------------|
B|-----------------------------------------------------------------------------|
G|-----------------------------------------------------------------------------|
D|-----------------------------------------------------------------------------|
A|------------7h-11--9--7-----7--9--7------------------------------------------|
E|-----------------------------9-----------------------------------------------|
             F#m                                        A            E
            Maybe this is how it's supposed to be
              F#m                                        A            E
            Maybe this is how it's supposed to be
e|-----------------------------------------------------------------------------|
B|-----------------------------------------------------------------------------|
G|-----------------------------------------------------------------------------|
D|------------9--7-6-----------------------------------------------------------|
A|----------------------7h-9h-11--7--------------------------------------------|
E|----------------------------------------9------------------------------------|
(Play this over the next 2/3 lines)
             F#m                           E
            Looking forward as we rewind
             F#m                        E
            Looking back is a trap sometimes
              F#m                       E         A
            Being here is so easy to do
             E
             If you want to
             A
            If you want to

Repeat this to the end.
Also, play the Main Riff over the "If you want to" played with E

Thank you for reading
            
Tabs too difficult? Try these video lessons and learn fast.


comments powered by Disqus
↑ Back to top | Tablatures and chords are parodies/interpretations of the original songs. You may use it for private study, scholarship, research or language learning purposes only