» » »

Bruised Bass tabs (ver.1)

Artists:  A B C D E F G H I J K L M N O P Q R S T U V W X Y Z # 

Bruised Bass tabs (ver.1)

Jacks Mannequin
Rating:
5/5 (4 votes)

Tabs too difficult? Try these video lessons and learn fast.
                How the heck hasn't anyone tabbed this yet on bass!?!?!

amazing song, and all the notes here are 100% correct(some might be played an octave
because I wanted to keep it in standard tuning).  I literally transcribed the song note for
so its a pretty long tab.  AWESOME bridge bassline check it out.  Just listen closely to 
the timing and feel down, the bass is kinda hard to hear i guess.

~ = hold note
/ = slide
h = hammer on
p = pull off
x = mute note


intro - 0:14

------------------------------------5555555-8----------------------------|
------------------5555555555555555------------66666666----------88888888-|
-6666666666666666--------------------------------------66666666----------|
-------------------------------------------------------------------------|

------------------------------------5555555-8----------------------------|
------------------5555555555555555------------66666666-------------------|
-6666666666666666--------------------------------------------------------|
-------------------------------------------------------------------------|


Verse

------------------------------------5555555-8----------------------------|
------------------5555555555555555------------66666666----------88888888-|
-6666666666666666--------------------------------------66666666----------|
-------------------------------------------------------------------------|

------------------------|
-6~-6h8-6-5-------------|
------------------------|
------------------------|


Chorus

-------------------------------------|
-6666666666666666--------------------|
------------------666666666666-8888--|
-------------------------------------|


-------------------------------------|
-6666666666666666--------------------|
------------------66666666666666-55--|
-------------------------------------|


-----------------------------------------|
-6666666666666666------------------5555--|
------------------666666666666-888-------|
-----------------------------------------|


-------------------------------------|
-6666666666666666--------------------|
------------------6~~~~~~~~~~-/1718--|
-------------------------------------|


PreVerse - little bit different from first verse

------------------------------------5555555-8----------|
------------------5555555555555555------------66666666-|
-6666666666666666--------------------------------------|
-------------------------------------------------------|


Verse - little bit different from first verse

------------------------------------555555555555555-------------------|
------------------5555555555555555------------------6666666666666666--|
-6666666666666666-----------------------------------------------------|
----------------------------------------------------------------------| x2


------------------------------------555555555555555-|
------------------5555555555555555------------------|
-6666666666666666-----------------------------------|
----------------------------------------------------|


Chorus

-----------------------------------------|
-6666666666666666------------------5555--|
------------------666666666666-888-------|
-----------------------------------------|

-------------------------------------------|
-6666666666666666--------------------------|
------------------666666666666---/1718-----|
-------------------------------------------|

------------------------------------------|
-666666666666-6865----------------5555----|
------------------666666666666-888--------|
------------------------------------------|

----------------------------------------------|
-6666666666666666-----------------------------|
------------------666666666666-55555555-------|
----------------------------------------------|

Bridge - hard to hear but these notes fit perfectly

-------------------------------------------|
------5-6--x--6-8-6-5-----8-6-8-----8-6-5--|
-6-8------------------x-6-------x-6--------|
-------------------------------------------|


------------------------------------5-7-8-----|
------5-6--x--6-8-6-5-----8-6-8---------------|
-6-8------------------x-6-------x-6-----------|
----------------------------------------------| x2


------------------------------------8-7-----|
------5-6--x--6-8-6-5-----8-6-8--------8----|
-6-8------------------x-6-------x-6---------|
--------------------------------------------|

----------------------|
-6~--65---------------|
-------8--6~~~--------|
----------------------|


Chorus

-----------------------------------------|
-6666666666666666------------------------|
------------------6666666666666666-------|
-----------------------------------------|

-----------------------------------------|
-6666666666666666------------------------|
------------------6666666666666666-------|
-----------------------------------------|

-----------------------------------------|
-666666666666666-8-----------------------|
-------------------66666666666-6h8-6-5---|
-----------------------------------------|

------------------------------------------|
-666666666666-6p5-6p5----------------5555-|
----------------------66666666--8888------|
------------------------------------------|

outro/end of chorus

-------------------------------------|
-666666666666666-8-------------------|
-------------------6~---/1718--6~~~~-|
-------------------------------------|
            
Tabs too difficult? Try these video lessons and learn fast.




comments powered by Disqus
↑ Back to top | Tablatures and chords are parodies/interpretations of the original songs. You may use it for private study, scholarship, research or language learning purposes only