» » »

Kill The Messenger Bass tabs (ver.1)

Artists:  A B C D E F G H I J K L M N O P Q R S T U V W X Y Z # 

Kill The Messenger Bass tabs (ver.1)

Jacks Mannequin
Rating:
4/5 (1 vote)

Tabs too difficult? Try these video lessons and learn fast.
                “Kill the Messenger” by Jack’s Mannequin
Drop D

May not be perfect, but it's right for the most part.

Intro/Verse (0:11)
-------------------|
-------------------|	(3x)
-------------------|
--5---3---1--------|

----------------------------|
----------------------------|
----------------5---3-------|
--5---3---1-----------------|

Chorus
-------------------------------------------------------------------------------|
-------------------------------------------------------------------------------|
----------------------5-5-5-5---3-3-2-2-1---------------------3-3-3-3---5-3----|
--1-1-1-1---5-5-5-5------------------------1-1-1-1---5-5-5-5-------------------|

-------------------------------------------------------------------------------|
-------------------------------------------------------------------------------|
----------------------5-5-5-5---3-3-2-2-1------------3-3-3-3--------0-1-0------|
--1-1-1-1---5-5-5-5------------------------1-1-1-1-------------3-5--------5-3--|

--------------------------------|
--------------------------------|
--------------------------------|
---1-1-1-1---3-3-3-3---5--------|


Verse repeat
Chorus repeat

Chorus end
--------------------------------------------------------------------|
--------------------------------------------------------------------|
---------------------------------5-6-6-5-3--------------------------|
---1-1-1-1---3-3-3-3---5-5-5-5--------------1-1-1-1---3-3-3-3---5---|

Bridge
-------------------------|-------------------------------------|
-------------------(2x)--|-------------------------------------|
---1>-3------------------|-------------------------------------|
-----------1>-3----------|---1-(8x)---3-(8x)---5-(8x)---5------|

Chorus repeat

Outtro
-----------------------------------------------------------------------------|
-----------------------------------------------------------------------------|
-------------------------------5-6-5-----------------------------5-6-5-3-1---|
---1-1-1-1---3-3-3-3--5-5-5-5---------1-1-1-1---3-3-3-3-5-5-5-5--------------|

-----------------------------|
-----------------------------|
------------------0~1~3~6----|
---1-3-5---1-3-5-------------|
            
Tabs too difficult? Try these video lessons and learn fast.


comments powered by Disqus
↑ Back to top | Tablatures and chords are parodies/interpretations of the original songs. You may use it for private study, scholarship, research or language learning purposes only