» » »

Getting Away With It Tabs (ver.2)

Artists:  A B C D E F G H I J K L M N O P Q R S T U V W X Y Z # 

Getting Away With It Tabs (ver.2)

James
Rating:
0/5 (0 votes)

Tabs too difficult? Try these video lessons and learn fast.
                Electro JAWz brings u yet another classic to learn on the guitar

James - Getting Away With It All Messed Up

Dm                                Am

e---------1--------------1---------------0--------------0------
b------3----3---3-----3----3---3------1----1---1-----1----1---1
g--2-2---2----2---2-2---2----2----2-2---2----2---2-2---2----2---
D---------------------------------------------------------------
A---------------------------------------------------------------
E---------------------------------------------------------------

C                                 G

e----------0--------------0---------------2--------------2-------
b------1----1---1-----1----1---1------0----0---0-----0----0---0-
g--0-0---0----0---0-0---0----0----0-0---0----0---0-0---0----0---
D---------------------------------------------------------------
A---------------------------------------------------------------
E---------------------------------------------------------------

Just keep repeating this. Listen to the song to get the rythm correct
            
Tabs too difficult? Try these video lessons and learn fast.


comments powered by Disqus
↑ Back to top | Tablatures and chords are parodies/interpretations of the original songs. You may use it for private study, scholarship, research or language learning purposes only