» » »

In Extremo Tabs (ver.1)

Artists:  A B C D E F G H I J K L M N O P Q R S T U V W X Y Z # 

In Extremo Tabs (ver.1)

In Extremo
Rating:
0/5 (0 votes)

Tabs too difficult? Try these video lessons and learn fast.
                          In Extremo
        - In Extremo -
      Verehrt und Angespien
 


Just a conversion from my guitar pro version to a text file.

Tuning: Standard E (E A D G B E)

BPM: 175


Riff Section:
-------------

Intro/Outro

    E E E E E E E E   E E E E E Q. 3x E E E E E E E E   E E E E E Q.
E|------------------|---------------|-----------------|-------------|
B|------------------|---------------|-----------------|-------------|
G|o-----------------|--------------o|-----------------|-------------|
D|o-----------------|-----------7\-o|-----------------|-----------5-|
A|--4-4-4-4-4-4-4-4-|-4-4-4-4-4-7\--|-4-4-4-4-4-4-4-4-|-4-4-4-4-4-5-|
E|--2-2-2-2-2-2-2-2-|-2-2-2-2-2-5\--|-2-2-2-2-2-2-2-2-|-2-2-2-2-2-3-|
    . . . . . . . .   . . . . .       . . . . . . . .   . . . . .
                

Pre-Verse

    W    W    W    W  2x  E E Q  E E Q   E E Q  E E Q   E E Q  E E Q   E E Q  E E Q 2x
E|----|-----|---|------|---------------|--------------|--------------|---------------|
B|----|-----|---|------|---------------|--------------|--------------|---------------|
G|o-2-|-(2)-|---|-----o|o-----2------2-|-----2------2-|-----2--------|-----2------2-o|
D|o-2-|-(2)-|-5-|-(5)-o|o-----2------2-|-----2------2-|-----2------5-|-----2------2-o|
A|--0-|-(0)-|-5-|-(5)--|--0-0-0--0-0-0-|-0-0-0--0-0-0-|-0-0-0------5-|-0-0-0--0-0-0--|
E|----|-----|-3-|-(3)--|---------------|--------------|--------3-3-3-|---------------|
                          . .    . .     . .    . .     . .    . .     . .    . .


Main Riff

   E E E E E E E E   Q  E E E E E E   E E E E E E E E    E  E E E E E E E
E|-----------------|----------------|-----------------|-------------------|
B|-----------------|----------------|-----------------|-------------------|
G|-----9-----7-----|-9--------------|-----9-----7---9-|-(9)---------------|
D|-----9-----7-----|-9--------------|-----9-----7---9-|-(9)---------------|
A|-----7-----5-----|-7--------------|-----7-----5---7-|-(7)---------------|
E|-0-0---0-0---0-0-|----0-0-0-0-0-0-|-0-0---0-0---0---|-----6-6-6-6-6-6-6-|
   . .   . .   . .      . . . . . .   . .   . .   .         . . . . . . .

  
Chorus

   W   W   W        W         W   Q Q Q Q Q Q   W    W
E|---|---|-------|----------|---|-------------|---|-----|
B|---|---|-------|----------|---|-------------|---|-----|
G|-7-|---|-------|----------|-7-|-------------|---|-----|
D|-7-|-8-|-7-----|-(7)------|-7-|-8-8-8-8-8-8-|-7-|-(7)-|
A|-5-|-8-|-7-----|-(7)------|-5-|-8-8-8-8-8-8-|-7-|-(7)-|
E|---|-6-|-5-----|-(5)------|---|-6-6-6-6-6-6-|-5-|-(5)-|
                                  |-3-| |-3-|
           H.  Q   Q   Q  H
(E|--|---|-------|----------|---|-------------|---|-----|) this is only for
(B|--|---|-------|----------|---|-------------|---|-----|) the overdub in
(G|--|---|-R-----|----------|---|-------------|---|-----|) the background
(D|--|---|-------|----------|---|-------------|---|-----|)
(A|--|---|-----0-|-3b--3--0-|---|-------------|---|-----|) listen carefully
(E|--|---|-------|----------|---|-------------|---|-----|)


Interlude

    W   W   W   W  3x then   W   W   W   H   E  E Q
E|----|---|---|----|       |---|---|---|------------|
B|----|---|---|----|       |---|---|---|------------|
G|o---|---|---|---o|       |---|---|---|--------9-9-|
D|o-7-|-5-|-4-|-3-o|       |-7-|-5-|-4-|-3--(3)-9-9-|
A|--7-|-5-|-4-|-3--|       |-7-|-5-|-4-|-3--(3)-7-7-|
E|--5-|-3-|-2-|-1--|       |-5-|-3-|-2-|-1--(1)-----|


Last Note

   Q  H.
E|------|
B|------| 
G|----R-| 
D|-7----| 
A|-7----|
E|-5----|
      
                     

Additional stuff:
-----------------

Bagpipes during 'Pre-Verse'

    Q  E  E  Q. E    Q  Q  H    Q. E  Q Q   H    Q E E    Q  E   E Q. E    Q  Q  H    Q. E  Q Q   H    H
E|----12----12-14-|-15-14-12-|-10-12-10-8-|-7--5h7-8-7-|----12----12-14-|-15-14-12-|-10-12-10-8-|-7--5h7-|
B|-10----10-------|----------|------------|------------|-10----10-------|----------|------------|--------|
G|----------------|----------|------------|------------|----------------|----------|------------|--------|
D|----------------|----------|------------|------------|----------------|----------|------------|--------|
A|----------------|----------|------------|------------|----------------|----------|------------|--------|
E|----------------|----------|------------|------------|----------------|----------|------------|--------|

    Q E E  Q    Q   Q E E Q   Q   E E  E E  E E E    Q    Q    H  2x
E|--8-7-8-10-8h10-|-7-5-7-8-7h8-|-8-7---------7-8-|---------------|
B|----------------|-------------|-----10-8-10-----|-10-8h10-8h10--|
G|o---------------|-------------|-----------------|--------------o|
D|o---------------|-------------|-----------------|--------------o|
A|----------------|-------------|-----------------|---------------|
E|----------------|-------------|-----------------|---------------|
  


Song Structure:
---------------
Intro        1x
Pre-Verse    1x
Main Riff    6x
Chorus       1x
Main Riff    6x
Chorus       1x
Pre-Verse    1x
Main Riff    6x
Chorus       1x
Interlude    1x
Pre-Verse    1x
Outro        1x
Last Note    1x


Description:
------------
. -> palm mute | (x) -> let ring | o -> repat | h -> hammer-on | \ -> slide down | |-3-| -> triplet |
 b -> bend
               |                 | o          |                |                 |                  | 

W -> whole note | H -> half note | Q -> quarter note | E -> eighth note | . -> dotted note
            
Tabs too difficult? Try these video lessons and learn fast.


comments powered by Disqus
↑ Back to top | Tablatures and chords are parodies/interpretations of the original songs. You may use it for private study, scholarship, research or language learning purposes only