» » »

Walk Away Tabs (ver.2)

Artists:  A B C D E F G H I J K L M N O P Q R S T U V W X Y Z # 

Walk Away Tabs (ver.2)

James Gang
Rating:
4/5 (6 votes)

Tabs too difficult? Try these video lessons and learn fast.
                #

James Gang - Walk Away

I decided to try and have a go because it's a great song and there wasn't one on the net!

The intro

E:-------------------------------------|
B:----5-5---5---5----5-5------5-5-5-5--|
G:-xx-7-6-x-6-x-6-xx-7-6-x----6-6-7-6--|
D:-xx-7-7-x-7-x-7-xx-7-7-xx-x-7-7-7-7--|
A:-xx-7-7-x-7-x-7-xx-7-7-xx-x-7-7-7-7--|
E:-xx-5-5-x-5-x-5-xx-5-5-x----5-5-5-5--|
                                     ENTER DRUMS

The Verse is like the intro, this is played from where the drums enter,
listen to the song and pick out the timing, it goes something like this

E:-----------------------....---|
B:--5--5--5-----5-5--5--5...----|
G:--6--6--6-x-x-7-6--6--6...----|
D:--7--7--7-x-x-7-7--7--7...----|
A:--7--7--7-x-x-7-7--7--7...----|
E:--5--5--5---x-5-5--5--5...----|


A second guitarist could play this over the strum (where the drums enter)
E:---------------------10----------------------------------|
B:-------/8----------10--10--10--10----8---10---8----------|
G:--------------------B-----B-----B------------------------|
D:---------------------------------------------------------|
A:---------------------------------------------------------|
E:---------------------------------------------------------|
bend it up on the B marker and keep the string bent for each not marked "B"

The chorus soon, when i have time ;)

The solo goes something like this :

E:---------------------------------------------------------------------------|
B:---------------------------------------------------------------------------|
G:-----------7--9---V7----------7--9---V7------------------------------------|
D:-----~9-------------------~9-----------------------------------------------|
A:---------------------------------------------------------------------------|
E:---------------------------------------------------------------------------|

E:--------------------------------------------------------------3------------|
B:---------------------------------------------------------------------------|
G:-----------7--9---10----9-----7------5---4---------------------------------|
D:-----~9--------------------------------------------------------------------|
A:---------------------------------------------------------------------------|
E:---------------------------------------------------------------------------|

E:---------------------------------------------------------------------------|
B:----------------------------------8----10----11----12----------------------|
G:-----------7--9---10-------------------------------------------------------|
D:-----~9--------------------------------------------------------------------|
A:---------------------------------------------------------------------------|
E:---------------------------------------------------------------------------|

E:---------------------------------------------------------------------------|
B:--------------------------------------------------7---8--------------------|
G:-----------------------------------------7--9------------------------------|
D:----V7--V7-7----5---5-------/9---------------------------------------------|
A:---------------------------------------------------------------------------|
E:---------------------------------------------------------------------------|
            
Tabs too difficult? Try these video lessons and learn fast.




comments powered by Disqus
↑ Back to top | Tablatures and chords are parodies/interpretations of the original songs. You may use it for private study, scholarship, research or language learning purposes only