» » »

Super Freak Bass tabs (ver.1)

Artists:  A B C D E F G H I J K L M N O P Q R S T U V W X Y Z # 

Super Freak Bass tabs (ver.1)

James Rick
Rating:
0/5 (0 votes)

Tabs too difficult? Try these video lessons and learn fast.
                
I believe these are the correct notes...

Rene Giust 


Intro/Verse

G|-------------------------------------------|
D|*------------------------------------------|
A|*--5----3----2----0--------------2----0----|
D|-----------------------0----3--------------|



G|-------------------------------------------|
D|*------------------------------------------|
A|*--5----3----2----0----2---------2----0----|
D|----------------------------3--------------|



Refrain

G|-------------------------------------------|
D|*------------------------------------------|
A|*--5----3----2----0----3---------3---------|
D|----------------------------1---------5----|


G|-----------------------------7----5----4------|
D|*---------------------------------------------|
A|*---------------------------------------------|
D|---1----3----5----(3x)------------------------|
            
Tabs too difficult? Try these video lessons and learn fast.




comments powered by Disqus
↑ Back to top | Tablatures and chords are parodies/interpretations of the original songs. You may use it for private study, scholarship, research or language learning purposes only