>
 >
Holy Grail

Holy Grail Guitar Tabs

Jay-Z - Holy Grail chords, tabs, tablatures, lyrics

Guitar lessons | Add/correct | Request | Top 50 tabs Artists:  A B C D E F G H I J K L M N O P Q R S T U V W X Y Z 0-9

Holy Grail Guitar Tabs – Jay-Z

CD, Sheet music, Poster

Do you like Holy Grail? Share with your friends now
ChordsChords v2Tabs
-----------------------------------------------------------------------------------
-----------------------------------------------------------------------------------

Tuning:Standard
Chords played: Dm C Bbmaj7 Bb/C Bb Asus A Gm F 
Intro Justin Timberlake Verse 1:
    Dm                   Dm/Bb                      Gm          C/Bb        Dm
e|--1--1--1--1--1--1--1--1--1--1--1--1--1--1--1--1--------------------------1--1--1--1--1--1--1--1--|
B|--3--3--3--3--3--3--3--3--3--3--3--3--3--3--3--3--3--3--3--3--5--5--5--5--3--3--3--3--3--3--3--3--|
G|--2--2--2--2--2--2--2--2--2--2--2--2--2--2--2--2--3--3--3--3--5--5--5--5--2--2--2--2--2--2--2--2--|x2
D|--0~-------------------0--------------------------5--5--5--5--5--5--5--5--0~----------------------|
A|------------------------3-1~-------------------10*----------------------3-------------------------|
E|--------------------------------------------------3~-------35-6~-------6--------------------------|

one then zero, not 10(ten)
 
Chorus:
  F           C          Dm           C           B           C           Asus
e|-1--1--1--1--------------------------------------1--1--1--1--------------0--0--0--0--0--0--0--------|
B|-1--1--1--1--5--5--5--5--6--6--6--6--5--5--5--5--3--3--3--3--5--5--5--5--3--3--3--3--3**3**3**------|
G|-2--2--2--2--5--5--5--5--7--7--7--7--5--5--5--5--3--3--3--3--5--5--5--5--2--2--2--2--2--2--2--------|
D|-------------5--5--5--5--7--7--7--7--5--5--5--5--------------5--5--5--5-----------------------------|
A|-------------3~----------5~----------3~----------1~----------3~-------------0~----------------------|
E|-1~-------------------------------------------------------------------------------------------------|

**this can also be played as 2 instead of 3 for a more dynamic range of sound

Chorus can alternatively be play from the chords' easier positioning:
   F           C           D           C           Bb          C           Asus      (A)
e|-1--1--1--1--0--0--0--0--1--1--1--1--0--0--0--0--1--1--1--1--0--0--0--0--0--0--0--0--0--0--0--------|
B|-1--1--1--1--1--1--1--1--3--3--3--3--1--1--1--1--3--3--3--3--1--1--1--1--3--3--3--3--3--3--3--------|
G|-2--2--2--2--0--0--0--0--2--2--2--2--0--0--0--0--3--3--3--3--0--0--0--0--2--2--2--2--2--2--2--------|
D|-------------------------0~-------------------------------------------------------------------------|
A|-------------3~----------------------3~----------1~----------3~----------0~-------------------------|
E|-1~-------------------------------------------------------------------------------------------------|

Jay-Z Verse 1:
e|----------------------(13)--------------------------------------------------------------------------|
B|-(15)----(15)(15)(15)-------------------------------------------------------------------------------|
G|----------------------------------------------------------------------------------------------------|
D|----------------------------------------------------------------------------------------------------|
A|----------------------------------------------------------------------------------------------------|
E|----------------------------------------------------------------------------------------------------|
 played simultaneously with:
e|----------------------------------------------------------------------------------------------------|
B|--(3)-----(3)-------(3)-------------------------------------(3)-------------------------------------|
G|----------------------------------------------------------------------------------------------------|
D|----------------------------------------------------------------------------------------------------|
------------------------------------------------------------------------------------------------------|
E|----------------------------------------------------------------------------------------------------|

Chorus 2:
  F           C          Dm           C           B           C           Asus
e|-(1)(1)(1)(1)------------------------------------(1)(1)(1)(1)------------(0)(0)(0)(0)(0)(0)(0)----|
B|-(1)(1)(1)(1)(5)(5)(5)(5)(6)(6)(6)(6)(5)(5)(5)(5)(3)(3)(3)(3)(5)(5)(5)(5)(3)(3)(3)(3)(3)(3)(3)----|
G|-(2)(2)(2)(2)(5)(5)(5)(5)(7)(7)(7)(7)(5)(5)(5)(5)(3)(3)(3)(3)(5)(5)(5)(5)(2)(2)(2)(2)(2)(2)(2)----|
D|-------------(5)(5)(5)(5)(7)(7)(7)(7)(5)(5)(5)(5)------------(5)(5)(5)(5)-------------------------|
A|--------------3~----------5~----------3~----------1~----------3~----------0~----------------------|
E|--1~----------------------------------------------------------------------------------------------|

Verse 2:
e|----------------------(13)--------------------------------------------------------------------------|
B|-(15)----(15)(15)(15)-------------------------------------------------------------------------------|
G|----------------------------------------------------------------------------------------------------|
D|----------------------------------------------------------------------------------------------------|
A|----------------------------------------------------------------------------------------------------|
E|----------------------------------------------------------------------------------------------------|
 played simultaneously with:
e|----------------------------------------------------------------------------------------------------|
B|--(3)-----(3)-------(3)-------------------------------------(3)-------------------------------------|
G|----------------------------------------------------------------------------------------------------|
D|----------------------------------------------------------------------------------------------------|
------------------------------------------------------------------------------------------------------|
E|----------------------------------------------------------------------------------------------------|
 "Still alive, still that n*gga"
e|---------------------------------------------------------------------|
B|---------------------------------------------------------------------|
G|---------------------------------------------------------------------|
D|--0~------------------------0~---------------------------------------|
A|-----3~------------------------3~------------------------------------|
E|--------3~------------------------3~---------------------------------|

Chorus 3:
  F           C          Dm           C           B           C           Asus
e|-(1)(1)(1)(1)------------------------------------(1)(1)(1)(1)------------(0)(0)(0)(0)(0)(0)(0)----|
B|-(1)(1)(1)(1)(5)(5)(5)(5)(6)(6)(6)(6)(5)(5)(5)(5)(3)(3)(3)(3)(5)(5)(5)(5)(3)(3)(3)(3)(3)(3)(3)----|
G|-(2)(2)(2)(2)(5)(5)(5)(5)(7)(7)(7)(7)(5)(5)(5)(5)(3)(3)(3)(3)(5)(5)(5)(5)(2)(2)(2)(2)(2)(2)(2)----|
D|-------------(5)(5)(5)(5)(7)(7)(7)(7)(5)(5)(5)(5)------------(5)(5)(5)(5)-------------------------|
A|--------------3~----------5~----------3~----------1~----------3~----------0~----------------------|
E|--1~----------------------------------------------------------------------------------------------|
Verse 3 Justin Timberlake Verse 2:

e|----------------------(13)--------------------------------------------------------------------------|
B|-(15)----(15)(15)(15)-------------------------------------------------------------------------------|
G|----------------------------------------------------------------------------------------------------|
D|----------------------------------------------------------------------------------------------------|
A|----------------------------------------------------------------------------------------------------|
E|----------------------------------------------------------------------------------------------------|
 played simultaneously with:
e|----------------------------------------------------------------------------------------------------|
B|--(3)-----(3)-------(3)-------------------------------------(3)-------------------------------------|
G|----------------------------------------------------------------------------------------------------|
D|----------------------------------------------------------------------------------------------------|
------------------------------------------------------------------------------------------------------|
E|----------------------------------------------------------------------------------------------------|

Chorus 4: 
  F           C          Dm           C           B           C           Asus
e|-(1)(1)(1)(1)------------------------------------(1)(1)(1)(1)------------(0)(0)(0)(0)(0)(0)(0)----|
B|-(1)(1)(1)(1)(5)(5)(5)(5)(6)(6)(6)(6)(5)(5)(5)(5)(3)(3)(3)(3)(5)(5)(5)(5)(3)(3)(3)(3)(3)(3)(3)----|
G|-(2)(2)(2)(2)(5)(5)(5)(5)(7)(7)(7)(7)(5)(5)(5)(5)(3)(3)(3)(3)(5)(5)(5)(5)(2)(2)(2)(2)(2)(2)(2)----|
D|-------------(5)(5)(5)(5)(7)(7)(7)(7)(5)(5)(5)(5)------------(5)(5)(5)(5)-------------------------|
A|--------------3~----------5~----------3~----------1~----------3~----------0~----------------------|
E|--1~----------------------------------------------------------------------------------------------|
Outro:

e|---------------------------------------------------------------------------------------------------|
B|---------------------------------------------------------------------------------------------------|
G|---------------------------------------------------------------------------------------------------|
D|---------------------------------------------------------------------------------------------------|
A|--5~-----------------5\3/5----5\3-\1~--------------1p0h1*----------------------3-------------------|
E|-----------------------------------------------------------10\8\6\5/6-------6\5-3~----3/5/6~-------|

hope you all enjoy. Have fun, thanks for viewing.

************************************

| /   slide up
| \   slide down
| h   hammer-on
| p   pull-off
| ~   vibrato
| +   harmonic
| x   Mute note
| b   Bend
| pb  Pre-bend
| br  Bend release
| pbr Pre-bend release
| brb Bend release bend

************************************





Comments


Popular Jay-Z tabs & chords
Niggas In Paris Bass Tabs
Holy Grail Chords
Bonnie And Clyde 1 Tabs
Hey Papi Tabs
Me And My Girlfriend Tabs
No Church In The Wild Intro Tabs
Roc Boys Intro 2 Tabs
The Watcher Tabs
Empire State Of Mind Ukulele
History Ukulele


Song lyrics



↑ Back to top | Tablatures and chords are parodies/interpretations of the original songs. You may use it for private study, scholarship, research or language learning purposes only
© 2014 AZChords.com Contact us | Privacy policy | DMCA | Add/correct tabs | Request tabs | Top 50 tabs