» » »

Mojo Pin Bass tabs (ver.1)

Artists:  A B C D E F G H I J K L M N O P Q R S T U V W X Y Z # 

Mojo Pin Bass tabs (ver.1)

Jeff Buckley
Rating:
0/5 (0 votes)

Tabs too difficult? Try these video lessons and learn fast.
                Jeff Buckley - Mojo Pin
Bass guitar tuning: Drop D (Tune your E-string one step down to D)
This is the first bass tab I've ever transcribed, so if there are any mistakes in it, 
feel free to contact me :)
If you need an easier version if this tab (without all the added notes), also contact me 
if you want, and I'll make it.
I'm saying that because this is quite a long tab, but to me it sounds pretty accurate!

Listen to the song carefully if you want the timing of the notes right!
You can see that the bassplayer plays chords on the bass in this song. To get the most 
accurate sound,
I play the chords using my thumb and my index finger.

(1:06)
G|---------9---9-----------12--12-s-14--9--9--|
D|---------10--10--10--10---------------------|
A|--------------------------------------------|
D|--0--------------10--10--10--10-s-12--7--7--|

G|-------------------------------------------------------------|
D|--10--10----------10--10----------10--10----------10--10-----|
A|----------12--12----------12--12----------12--12-------------|
D|----------------------------------------------------------0--|

(1:41)
G|------------------------------------------------------------------------|
D|------------------------------------------------------------------------|
A|--------------------------------------------------3/5-------5-----------|
D|--3------3/5--0------3--3/5--0----7--7--0--3-----------0-------7--0-----|

G|----------------------------------------------7--|
D|-------------------------------------------------|
A|------------------------------5----------5-------|
D|--7/9\7--5----4--7--4--0---------7--0------------|

(2:18)
G|--9---9-----------12--12-s-14--9--9--|
D|--10--10--10--10---------------------|
A|-------------------------------------|
D|----------10--10--10--10-s-12--7--7--|

G|--9---9-----------12--12-s-14--------|
D|--10--10--10--10---------------------|
A|-------------------------------------|
D|----------10--10--10--10-s-12--7--7--|

G|--------------------------9-------|
D|--10--10----------10--10--10------|
A|----------12--12--------------12--|
D|----------------------------------|

G|--------------------------9-------|
D|--10--10----------10--10--10------|
A|----------12--12--------------12--|
D|----------------------------------|

G|--------------------------9-------|
D|--10--10----------10--10--10------|
A|----------12--12--------------12--|
D|----------------------------------|

G|-----------------------------|
D|--10--10----------10--10-----|
A|----------12--12-------------|
D|--------------------------0--|

(3:10)
G|-------------------------------------------------------------------------|
D|---------3/5/7------------------------------------------------7--7--7h9--|
A|-------------------------------------------------------------------------|
D|--3-------------0----7--0--7--0--7--0--3--3\2/3----3--5--0---------------|

G|---------5--9-------------------------------------------------------|
D|---------3--7--0----------------------4--5--7--4--5--4--------------|
A|--------------------------------------------------------5--3--2--3--|
D|--3------3--7--0----7--9--10----9--7--------------------------------|

G|-------------------7--7--7-----7-----7-----7-----|
D|-------------------------------------------------|
A|--5----5-----5--5-----------5-----5-----5-----5--|
D|----------7--------------------------------------|

G|------------------------------------------------------------|
D|--------------------------------------------12--12--12--12--|
A|--5--5--5--5----5--5--5--5----5--5--5--5--------------------|
D|------------------------------------------------------------|

G|------------------------------------------------------------|
D|--------------------------------------------12--12--12--12--|
A|--5--5--5--5----5--5--5--5----5--5--5--5--------------------|
D|------------------------------------------------------------|

G|------------------------------------------------------------|
D|--------------------------------------------12--12--12--12--|
A|--5--5--5--5----5--5--5--5----5--5--5--5--------------------|
D|------------------------------------------------------------|

G|---------------------------------------------------|
D|------------------------------12--12--12--12-------|
A|--5--5--5--5----5--5--5--5-------------------------|
D|------------------------------------------------0--|

(4:04)
G|------------------|
D|--10--10--14--14--|
A|------------------|
D|--10--10--14--14--| (7 times,the 8th time it's played like this...)

G|----------------|
D|--10--10--------|
A|----------------|
D|--10--10--0/12--|

G|---------------------------------------------|
D|-----3---------------------------------5--7--|
A|-----------------------5--5---------5--------|
D|--3-------7--7--9--10------------7-----------|

G|-----------------------------------------------7-----7--|
D|------------------------------------0----7--7-----7-----|
A|--------------------------------------------------------|
D|--3--3----3--2--3--3--5--3--2--0------------------------|

G|------------------------------------------------------------------------|
D|------------------------------------------------------------------------|
A|----------------------5----------------------------------------2--3--5--|
D|--3----3----3/5/7--0-------7/9--10--9--7--4--5--7--4--5--4--0-----------|

G|----------7-----7--7--------------7--7--------7--------7--------7--------|
D|-------------------------------------------------------------------------|
A|--5----5-----5--------------------------5--5-----5--5-----5--5-----5--5--|
D|----------------------7--0--0--7-----------------------------------------|

G|------------------------------------------------------------|
D|--------------------------------------------12--12--12--12--|
A|--5--5--5--5----5--5--5--5----5--5--5--5--------------------|
D|------------------------------------------------------------|

G|------------------------------------------------------------|
D|--------------------------------------------10--10--10--10--|
A|--5--5--5--5----5--5--5--5----5--5--5--5--------------------|
D|------------------------------------------------------------|

G|------------------------------------------------------------|
D|--------------------------------------------12--12--12--12--|
A|--5--5--5--5----5--5--5--5----5--5--5--5--------------------|
D|------------------------------------------------------------|

G|---------------------------------------------------|
D|------------------------------12--12--12--12-------|
A|--5--5--5--5----5--5--5--5-------------------------|
D|------------------------------------------------0--|
            
Tabs too difficult? Try these video lessons and learn fast.


comments powered by Disqus
↑ Back to top | Tablatures and chords are parodies/interpretations of the original songs. You may use it for private study, scholarship, research or language learning purposes only