» » »

Ceria Tabs (ver.1)

Artists:  A B C D E F G H I J K L M N O P Q R S T U V W X Y Z # 

Ceria Tabs (ver.1)

J-rocks
Rating:
4/5 (2 votes)
Tabs too difficult? Try these video lessons and learn fast.
                J-Rocks - Ceria

Intro : E A D Bm
        E A D
        E A F#m Bm
        E A D D

E|----------------------------------------------------------------------|
A|----------------------------------------------------------------------|
D|----------------------------------------------------------------------|
G|----------------------------------------------------------------------|
B|-0-0-0-0--2-2-2-2--3-3-3-3--0-0-0-0--0-0-0-0--2-2-2-2--3-3-3-3---3----|
E|--0-0-0-0--0-0-0-0--2-2-2-2--2-2-2-2--0-0-0-0--0-0-0-0--2-2-2-2--2----|

I
           E          A
Hari Ini kudendangkan
                   D        Bm
Lagu yang ingin kunyanyikan
                E        A
Terkenang semua kenangan
                D
Yang tlah kualami

II
                E       A
Ingin kubuka lembar baru
                 D      Bm
Untuk meneruskan hidupku
             E        
Tak mau lagi kesedihan
A            D
Slimuti diriku


G         A       D    Bm        Em    A          D
Semua orang ingin bahagia menjalani hidup di dunia ini
G      A        F#m  Bm      Em                A 
Ingin kubukakan jawaban misteri kesenangan sejati

Back to I (Only 1 and then go to reff)

Reff :

E    A           D      Bm       E     A           D       
Menari dan terus bernyanyi mengikuti irama sang mentari
E    A           D   Bm      E     A          D      
Tertawa dan slalu ceria berikan ku arti hidup ini

Solo guitar:

E|-----------------------------------------|
B|-----------------------------------------|
G|----9s10--9--7--9s10--10--10s12--7--7s9--|
D|-----------------------------------------|
A|-----------------------------------------|
E|-----------------------------------------|

E|-----------------------------------------------------------------------------------------|
B|---13--12--11--10-------------------------------------------------------------10--10s12--|
G|--------------------12--10--9h10p9-------------------------------------------------------|
D|--------------------------------------12--10--9h10p9-------------9--10--12---------------|
A|--------------------------------------------------------12--10--12-----------------------|
E|-----------------------------------------------------------------------------------------|

E|---------------------------------------------|
B|--12--13--15--17--17b1/4--15--13--15--15b17--|
G|---------------------------------------------|
D|---------------------------------------------|
A|---------------------------------------------|
E|---------------------------------------------|

Rhytim : E A D Bm E A D
         E A F#m E A D

E|---------------------------------------------------------------|
B|--12--10--9h10p9-----------------------------------------------|
G|--------------------11--9--8--9--8-----------------9--8--9--8--|
D|-------------------------------------9--------------9----------|
A|-------------------------------------9--7--6--7s9--------------|
E|---------------------------------------------------------------|

E|---------------------------------6--7--8|--9--10--11--12|11-12-11------------------|
B|---------------------6--7--8--9-------------------------------------12-------------|
G|--6--8--5--6--8--9---------------------------------------------------11---9-8-9-8--|
D|-----------------------------------------------------------------------------------|
A|-----------------------------------------------------------------------------------|
E|-----------------------------------------------------------------------------------|


E|------------------------------------------12--14b1/4--12--14--12--------12---------------|
B|----------------------------------12--14-----------------------------14--12--14--12--14--|
G|11b13--9--11------9--11s13---------------------------------------------------------------|
D|------------------9h11-------------------------------------------------------------------|
A|-----------------------------------------------------------------------------------------|
E|-----------------------------------------------------------------------------------------|

E|--14b16--14b16--14b16--14b16--14b16--14--12------------|

E    A           D      Bm        E    A           D       
Menari dan terus bernyanyi mengikuti irama sang mentari
E    A           D   Bm      E     A           D      
Tertawa dan slalu ceria berikan ku arti hidup ini

E    A           D      Bm        E    A           D       
Menari dan terus bernyanyi mengikuti irama sang mentari
E    A           D   Bm      E     A           D      
Tertawa dan slalu ceria berikan ku arti hidup ini
            
Tabs too difficult? Try these video lessons and learn fast.


comments powered by Disqus
↑ Back to top | Tablatures and chords are parodies/interpretations of the original songs. You may use it for private study, scholarship, research or language learning purposes only