» » »

I Predict A Riot Bass tabs (ver.3)

Artists:  A B C D E F G H I J K L M N O P Q R S T U V W X Y Z # 

I Predict A Riot Bass tabs (ver.3)

Kaiser Chiefs
Rating:
0/5 (0 votes)

Tabs too difficult? Try these video lessons and learn fast.
                


Sign up to the my mailing list on my site to get hold of my 50 Essential Function Band 
Tabs for the Working Bass Player!

INTRO
G|----------------------------------------------------------------------------|
D|----------------------------------------------------------------------------|
A|3-3-3-3/6-6-5-5-3-3-3-3-/6-6-5-5-/11-11-11-11-10-10-10-10-10-8-8-8-8-6-6-5-5|
E|----------------------------------------------------------------------------|

G|----------------------------------------------------------|
D|----------------------------------------------------------|
A|3333333/6666555533333333/66665555/11-11-11-11-11-11-11-11-|
E|----------------------------------------------------------|

G|------------------------------------------|
D|------------------------------------------|
A|10-10-10-10-10-10-10-10-88888888-6666-5555|
E|------------------------------------------|


VERSE ONE
G|-------/8----/10---10-8-7--5---12---10----8--7-5-7-8----8--10--10---|
D|--------------------------------------------------------------------|
A|3~----------------------------------------------------------------\-|
E|--------------------------------------------------------------------|

G|--------------------------------------------------------------------|
D|--------------------------------------------------------------------|
A|333333333333333-66666666-86686686-333333333333333-66666666-86686686-|
E|--------------------------------------------------------------------|


PRE-CHORUS
G|--------------------------------------------------------10---------10----10-10|
D|-----------------------------------------------------------10---------10------|
A|3-3-3-3-2-2-2-2-1-1-1-1-------3-3-3-3-2-2-2-2-1-1-1-1/8-------8--8------------|
E|-----------------------1-1-1-3------------------------------------------------|


CHORUS
x2
G|--------------------------------6-8|
D|-----------------------6-6--6/9----|
A|-----------4-444-------------------|
E|4--44--4-4-------4--44-------------|


VERSE TWO
G|-------/8----/10-8-8-10--10-8-7--5---12---10----8--7-5-7-8----8--10-8-10---|
D|---------------------------------------------------------------------------|
A|3~------------------------------------------------------------------------\|
E|---------------------------------------------------------------------------|

G|--------------------------------------------------------------------|
D|--------------------------------------------------------------------|
A|333333333333333-66666666-86686686-333333333333333-66666666-86686686-|
E|--------------------------------------------------------------------|

REPEAT PRE-CHORUS
REPEAT CHORUS


BRIDGE
G|---------------------13---------13-----13---------13---|
D|-----------------------13---------13------13--------13-|
A|5--5-3--3--1---1-/11-----11--11------11------11-11----\|
E|-------------------------------------------------------|

G|----------------------------------------------------------|
D|----------------------------------------------------------|
A|3333333/6666555533333333/66665555/11-11-11-11-11-11-11-11-|
E|----------------------------------------------------------|

G|------------------------------------------|
D|------------------------------------------|
A|10-10-10-10-10-10-10-10-88888888-6666-5555|
E|------------------------------------------|

G|----------------------------------------------------------|
D|----------------------------------------------------------|
A|3333333/6666555533333333/66665555/11-11-11-11-11-11-11-11-|
E|----------------------------------------------------------|

G|------------------------------------------|
D|------------------------------------------|
A|10-10-10-10-10-10-10-10-88888888-6666-5555|
E|------------------------------------------|


G|-------/8----/10---10-8-7--5---12---10----8--7-5-7-8----8/10-----|
D|---------------------------------------------------------------\-|
A|3~---------------------------------------------------------------|
E|-----------------------------------------------------------------|


LAST PRE-CHORUS
G|---------------------------------------------------------------|
D|---------------------------------------------------------------|
A|3-33-333-2-22-222-1-11-111---------3-33-333-2-22-222-1-11-111/-|
E|--------------------------1-11-1-3-----------------------------|

G|--10-------10---10------10----------10--------10---------10--------10---------10---10-10|
D|----10-------10---10------10----------10--------10---------10-10------10--------10------|
A|8------8--8-----------8--------8--8----------8-------8--8---------8-------8--8----------|
E|----------------------------------------------------------------------------------------|


LAST CHORUS
x2
G|--------------------------------6-8|
D|-----------------------6-6--6/9----|
A|-----------4-444-------------------|
E|4--44--4-4-------4--44-------------|

G|------------------------|
D|------------------------|
A|5--5-3--3--1---1---4-444|
E|-----------------4------|

x3
G|---------------|
D|---------------|
A|---------4-444-|
E|4--44--44------|

G|---------------------|
D|---------------------|
A|------------4-444----|
E|4--44--4--4-------4~-|


| /  slide up
| \  slide down
| h  hammer-on
| p  pull-off
| ~  vibrato
| +  harmonic
| x  Mute note
| S  Slap
| P  Pop
            
Tabs too difficult? Try these video lessons and learn fast.




comments powered by Disqus
↑ Back to top | Tablatures and chords are parodies/interpretations of the original songs. You may use it for private study, scholarship, research or language learning purposes only