» » »

Little Shocks Tabs (ver.2)

Artists:  A B C D E F G H I J K L M N O P Q R S T U V W X Y Z # 

Little Shocks Tabs (ver.2)

Kaiser Chiefs
Rating:
3/5 (2 votes)

Tabs too difficult? Try these video lessons and learn fast.
                Main Riff
E---------------------------|
B---------------------------|
G---------------------------|
D---------------------------|
A------7---7-------7---7----|
E-5-5---5----5-5---5--------|

Bridge
"All these little shocks..."
Bm then back to main riff

chorus/rhythm for end solo -
"i wish i could give..."
E G Bm A

Middle 8 bit

Bit of the solo...

E-------------------------------|
B-------------------------------|
G-5-3------5-3------5-3---------|
D------3-5------3-5------3------|
A-------------------------------|
E-------------------------------|


All palm muted

E-------------------------------|
B-------------------------------|
G-------------------------------|
D-2-2-2-2-2-2-2-2-2-2-2---------|
A-------------------------------|
E-------------------------------|

Should be correct. Will update with more of the solo as i work it out :)
            
Tabs too difficult? Try these video lessons and learn fast.




comments powered by Disqus
↑ Back to top | Tablatures and chords are parodies/interpretations of the original songs. You may use it for private study, scholarship, research or language learning purposes only