» » »

Never Miss A Beat Bass tabs (ver.4)

Artists:  A B C D E F G H I J K L M N O P Q R S T U V W X Y Z # 

Never Miss A Beat Bass tabs (ver.4)

Kaiser Chiefs
Rating:
0/5 (0 votes)

Tabs too difficult? Try these video lessons and learn fast.
                
Tuning: EADG

Intro

G|-------------------------------------------------------------------------------------|
D|-------------------------------------------------------------------------------------|
A|-----------------------------------------5-------------------------------------------|
E|----3-3--3-3--3-3--3-3--3-3--3-3--3-3--3---------------------------------------------|


x2

Half Intro x2

G|------------------------------------------------------------------------------------|
D|------------------------------------------------------------------------------------|
A|-------------------5----------------------------------------------------------------|
E|--3-3--3-3--3-3--3------------------------------------------------------------------|

Then Some 3's

G|----------------------------------------------------------------------------|
D|----------------------------------------------------------------------------|
A|----------------------------------------------------------------------------|
E|-3-3--3-3--3-3--3-3--3-3--3-3--3-3--3-3--3-3--3-3--3-3--3-3--3-3--3-3--3-3--|


x4 and a half

Bridge

G|---------------------------------------------------------------------------------------|
D|---------------------------------------------------------------------------------------|
A|-----------6-6-6--------------5-5-5----------------------------------------------------|
E|-6-6--6-6---------8--8-8--8-8-------3--------------------------------------------------|

Then some 3's  16 times on 2 fret on the E string

Intro x3


Then some 3's 16 times on 2 fret on the E string


Pre-Chorus

G|-------------------------------------------------------------------------------------|
D|-------------------------------------------------------------------------------------|
A|-----------6-6-6------------5-5--5-5-------------------------------------------------|
E|-6-6--6-6--------8-8--8-8-8----------------------------------------------------------|

Then some 3's 16 times on 2 fret on the E string

Pre-Chorus x1

Then some 3's 24 times on 2 fret on the E string


Chorus

G|--------------------------------------------------------------------------------|
D|--------------------------------------------------------------------------------|
A|--------------------------------------------4-4--4-4--4-4--4-4------------------|

E|-1-1--1-1--1-1--1-1---1-1--1-1--1-1--1-1------------------------------------


G|-------------------------------------------------------------|
D|-------------------------------------------------------------|
A|-6-6--6-6--6-6--6-6------------------------------------------|
E|---------------------1-1--1-1--1-1--1-1--1-1--1-1--1-1--1-1--|


G|-------------------------------------------------------------|
D|-------------------------------------------------------------|
A|-4-4--4-4--4-4--4-4--6-6--6-6--6-6--6-6--8-8--8-8--8-8--8-8--|
E|-------------------------------------------------------------|

G|-------------------------------------------------------------|
D|-------------------------------------------------------------|
A|-8-8--8-8--8-8--8-8--8-8--8-8--8-8--8-8--8-8--8-8--8-8--8-8--|
E|-------------------------------------------------------------|

Intro x3

Half Intro x2

Then some 3's 16 times on 2 fret on the E string

Half Intro x1

Intro x1

Then some 3's 24 times on 2 fret on the E string

Bridge x1

Then some 3's 16 times on 2 fret on the E string

Bridge x1

Then some 3's 24 times on 2 fret on the E string


Chorus x1


Outro = 64 time's on the 3 fret on the  E String

G|-----------------------------------------|
D|-----------------------------------------|
A|-----------------------------------------|
E|-6-6--6-6--8-8--8-6--6-6--5-5--5-5--5-5--|

G|-----------------------------------------|
D|-----------------------------------------|
A|-----------------------------------------|
E|-3-3--3-3--3-3--3-3--3-3--3-3--3-3--3-3--|

x2


Finally Chorus x1


Thanks For Reading

Any Improvements on This Tab

Please Tell Me

Thanks Again


Jack :D


| /  slide up
| \  slide down
| h  hammer-on
| p  pull-off
| ~  vibrato
| +  harmonic
| x  Mute note
===============================================================================
            
Tabs too difficult? Try these video lessons and learn fast.




comments powered by Disqus
↑ Back to top | Tablatures and chords are parodies/interpretations of the original songs. You may use it for private study, scholarship, research or language learning purposes only