» » »

Ruby Tabs (ver.2)

Artists:  A B C D E F G H I J K L M N O P Q R S T U V W X Y Z # 

Ruby Tabs (ver.2)

Kaiser Chiefs
Rating:
0/5 (0 votes)

Tabs too difficult? Try these video lessons and learn fast.
                Ruby-Kaiser Chiefs

Intro

(Overdriven guitar)

Riff A

e-6-x-6-x--|
B-8-x-8-x--|
G-8-x-8-x--|
D-8-x-8-x--|
A---x---x--|
E---x---x--| x2

Riff B

e---------------------------------|
B---------------------------------|
G---------------------------------|
D---------------------------------|
A-----4--------6-6--4-4--6-6--4-4-|
E-6-6----1-1-4--------------------| 

Riff C

e-------------------------------|
B-------------------------------|
G-------------------------------|
D-------------------------------|
A-----4-------6-6--4-4--3-3--1--|
E-6-6---1-1-4-------------------|

Riff D

e------------------|
B------------------|
G------------------|
D------------------|
A------------------|
E-6-6-4-4-3-3-1-1--| x1

Verse

e-1----1----x----x--|
B-2----1----4----6--|
G-3----1----5----7--|
D-3----3----6----8--|
A-x----3----6----8--|
E-x----x----x----x--|

Gtr 2 (Fill)

e--------------|
B--------------|
G--------------|
D-8--10--6--8--|
A--------------|
E--------------|

Chorus

e-----------------------------|
B-----------------------------|
G-----------------------------|
D-----------------------------|
A-----4-------6-6--4--6-6--4--|
E-6-6---1-1-4-----------------|

e--------------------------------|
B--------------------------------|
G--------------------------------|
D--------------------------------|
A-----4--------6-6--4-4--3-3--1--|
E-6-6----1-1-4-------------------|

Bridge

F   C#  Bb  B  C x2

Solo

e------------------------------------------|
B------------------------------------------|
G------------------------------------------|
D-10p8-10p8-10p8--10--6--8--8/10--8--6--3--|
A------------------------------------------|
E------------------------------------------|

e-------------------------------------------------|
B-------------------------------------------------|
G-------------------------------------------------|
D-6--8--10--8--6--3--6--8--8/10--8--10--8--9--10--|
A-------------------------------------------------|
E-------------------------------------------------|

Order

Intro:
Riff A 
Riff B
Riff C
Riff B
Riff C
Riff D
Verse
Chorus
Verse
Chorus
Bridge
Solo
Chorus x2
            
Tabs too difficult? Try these video lessons and learn fast.




comments powered by Disqus
↑ Back to top | Tablatures and chords are parodies/interpretations of the original songs. You may use it for private study, scholarship, research or language learning purposes only