» » »

Fade Away Tabs (ver.1)

Artists:  A B C D E F G H I J K L M N O P Q R S T U V W X Y Z # 

Fade Away Tabs (ver.1)

Kapatid
Rating:
3/5 (4 votes)

Tabs too difficult? Try these video lessons and learn fast.
                FADE AWAY



e|-------------------------------------------------------------------------------------X-----|
B|---------------------13/15\13--10/12/10---------------13/15\13--10/12/10-------------X-----|
G|---------------------12/14\12---9/11\9-----------------12/14\12---9/11\9-------------X-----|
D|--7---7---5--------------------------------7--7--5-----------------------------------X-----|
A|--7---7---5--------------------------------7--7--5-----------------------------------X--9/1|
E|--5---5---3--------------------------------5--5--3-----------------------------------------|


e|------------------------------------------------------------------------------------------|
B|------------------------------------------------------------------------------------------|
G|------------------------------------------------------------------------------------------|
D|---7--7--5-----------------------7--7--5---------------------------7--7--5----------------|
A|---7--7--5-------------2---------7--7--5-------5/7\5---5-----------7--7--5--------------2-|
E|---5--5--3--------0h2---0--------5--5--3-------------7---7---------5--5--3--------0h2---0-|


                                      was it something that i said to you......
e|-------------------|-------------------------|
B|-------------------|-------------------------|
G|-------------------|-------------------------|
D|----7--7--5--------|--------7--7--5----------|
A|----7--7--5--------|--------7--7--5----------|
E|----5--5--3--------|--------5--5--3----------|


chorus:
i say we fade away...
e|-----------------------------------------------------------------------------------------------|
B|---------------------------------------------------------------------------13/15\13--10/12/10--|
G|---------------------------------------------------------------------------12/14\12---9/11\9---|
D|-----7--7--5-------------------7--7--5----------------------------7--7--5----------------------|
A|-----7--7--5---------2---------7--7--5-------5/7\5---5-----------7--7--5-----------------------|
E|-----5--5--3----0h2---0-------5--5--3-------------7---7---------5--5--3------------------------|


   fade away... (paulit ulit/repeat)
e|----------------------------------------|
B|----------------------------------------|
G|---------8-8--9-9-9-9-9-----------------|
D|---------8-8--9-9-9-9-9-----------------|   (repeat)
A|---------6-6--7-7-7-7-7-----------------|
E|----------------------------------------|


      time and again.........
e|---------------------------------------------------------------|
B|---------------------------------------------------------------|
G|-----------------6----7--8-------------------------------------|
D|------7----9----6----7--8--------------------------------------|
A|------7----9----4----5--6--------------------------------------|
E|-----5----7----------------------------------------------------|


     parampadam...todedemtoodoo....
e|---------------------------------------------------------------------------------|
B|---------------------------------------------------------------------------------|
G|-------------------6-/-7-\6-----------------------6-/-7-\6----9------------------|
D|--------7----9-----6-/-7-\6----9------7---9-----6--/-7-\6---9--------------------|
A|--------7----9-----4------------9------7---9-----4-----------7-------------------|
E|--------5----7-------------------7------5---7------------------------------------|
            
Tabs too difficult? Try these video lessons and learn fast.




comments powered by Disqus
↑ Back to top | Tablatures and chords are parodies/interpretations of the original songs. You may use it for private study, scholarship, research or language learning purposes only