» » »

Pagbabalik Ng Kwago Bass tabs (ver.1)

Artists:  A B C D E F G H I J K L M N O P Q R S T U V W X Y Z # 

Pagbabalik Ng Kwago Bass tabs (ver.1)

Kapatid
Rating:
1/5 (1 vote)

Tabs too difficult? Try these video lessons and learn fast.
                                          PAGBALIK NG KWAGO (Bassline)
                             As recorded by kapatid
                          (From the 2002 Album KAPATID)

Words and Music by kapatid

Gtr I (E A D G) - 'Untitled'

 00:00
  Q=110
                                                                     To Coda
                                                                     To Coda
 4/4
  Gtr I
                                                                  |---3---|
 Q  Q  E E E E  +E  E Q  E E E E  +E  E Q  E E E E  +E  E E E E E E E S E
|--------------|-----------------|-----------------|----------------------||
|--------------|-----------------|-----------------|----------2-----------||
|--------------|-----------------|-----------------|------------2-4-5-----||
|0--3--0-0---0-|(0)-0-3--0-0---0-|(0)-0-3--0-0---0-|(0)-0-3---------------||


                             1.,2.,3.                     4.
   S S E S S S S E. S E S S  S S E S S S S E. S E S S  4x S S E S S S S H
||--------------------------|--------------------------||------------------|
||o---------------------5---|---------------------5---o||------------------|
||o7-------5---7------------|7-------5---7------------o||-7-------5---7----|
||-----0------------5-5-----|----0------------5-5------||----0-------------|


   00:28
                        1.                      2.
    S S E S S S S H      S S E S S S S H        S S E S S S S E. S E S S
||---------------------|---------------------||---------------------------|
||o--------------------|--------------------o||---------------------------|
||o-7-------5---7------|-7-------5---7------o||-7-------5---7-------------|
||------0--------------|-----0---------------||-----0------------0-3-5----|


                             D.C. al Coda
    S S E S S S S H      S S E S S S S H
||---------------------|---------------------||
||o--------------------|--------------------o||
||o-7-------5---7------|-7-------5---7------o||
||------0--------------|-----0---------------||


 00:54
  &
  S S E S S S S E. S E S S     S S E S S S S E. S E S S
|--------------------------||----------------------------||
|----------------------5---||o----------------------5---o||
|-7-------5---7------------||o-7-------5---7------------o||
|-----0------------0-3-----||------0------------3-3------||


  S S E S S S S S S S S S S S S
|-------------------------------|
|---------------------5-----4---|
|-7-------5---7-----------------|
|-----0-----------0-3-----0-----|


    S S E S S S S E. S E S S     S S E S S S S S S S S S S S S
||----------------------------||-------------------------------|
||o----------------------5---o||---------------------5-----4---|
||o-7-------5---7------------o||-7-------5---7-----------------|
||------0------------3-3------||-----0-----------0-5-----5-----|


  S S E S S S E S S S S S S S
|-------------------------------||
|-------------------------------||
|-7-------5---7-7-7-7-7-7-7-7---||
|-----0-------------------------||


   01:11
                     1.,2.,3.             4.
                                      D.C. al Dbl. Coda
    E E E E E E E E   E E E E E E E E  4x E E E E Q  Q
||------------------|------------------||---------------||
||o-----------------|-----------------o||---------------||
||o-----------------|-----------------o||---------------||
||--7-7-7-7-7-7-7-7-|-5-5-5-5-5-5-5-5--||-5-5-5-5-5--3--||


   01:38
    &&
    S S E S S S S S S S S E S S
||------------------------------|
||o-----------------------5-----|
||o-7-------5---7-----------5---|
||------0-----------3---3-------|


 1.                               2.
  S S E S S S S S S S S E S S     S S E S S S S S S S S S S S S
|------------------------------||-------------------------------|
|-----------------------5-----o||-----------------------5-5-----|
|-7-------5---7-----------5---o||-7-------5---7-------------5---|
|-----0-----------3---3--------||-----0-----------3---3---------|


    S S E S S S S S S S S E S S   S S E S S S S S S S S E S S
||------------------------------|------------------------------||
||o-----------------------5-----|-----------------------5-----o||
||o-7-------5---7-----------5---|-7-------5---7-----------5---o||
||------0-----------3---3-------|-----0-----------3---3--------||


                                     1.
    S S S S S S S S S S S S S S S S   S S S S S S S S S S S S S S S S
||----------------------------------|----------------------------------||
||o---------------------------------|---------------------------------o||
||o-7-7-7-7-7-7-7-7-7-7-7-7-7-7-7-7-|-7-7-7-7-7-7-7-7-7-7-7-7-7-7-7-7-o||
||----------------------------------|----------------------------------||


  2.
  S S S S S S S S S S S S S S S S
|-9-9-9-9-9-9-9-9-9-9-9-9-9-9-9-9----||
|------------------------------------||
|------------------------------------||
|------------------------------------||


   02:04
                     1.                   2.
    E E E E E E E E   E E E E E E E E     E E E E E Q.
||------------------|------------------||----------------|
||o-----------------|-----------------o||----------------|
||o-----------------|-----------------o||----------------|
||--7-7-7-7-7-7-7-7-|-5-5-5-5-5-5-5-5--||-5-5-5-5-5------|


                     1.                   2.
    E E E E E E E E   E E E E E E E E     E E E E Q  Q
||------------------|------------------||---------------||
||o-----------------|-----------------o||---------------||
||o-----------------|-----------------o||---------------||
||--7-7-7-7-7-7-7-7-|-5-5-5-5-5-5-5-5--||-5-5-5-5-5--3--||


 02:21
  Q  Q  E E E E   +E  E Q  E E E E   +E  E Q  E E E E   +E  E Q  E E Q
|---------------|------------------|------------------|------------------*|
|---------------|------------------|------------------|------------------*|
|---------------|------------------|------------------|------------------*|
|-0--3--0-0---0-|-(0)-0-3--0-0---0-|-(0)-0-3--0-0---0-|-(0)-0-3--0-0-----*|


Duration Legend
---------------
W - whole; H - half; Q - quarter; E - 8th; 
S - 16th; T - 32nd; X - 64th; a - acciaccatura
+ - note tied to previous; . - note dotted; .. - note double dotted
Uncapitalized letters represent notes that are staccato (1/2 duration)
Irregular groupings are notated above the duration line
Duration letters will always appear directly above 
the note/fret number it represents the duration for.  
Duration letters with no fret number below them represent rests. 
Multi-bar rests are notated in the form Wxn, where n is the 
number of bars to rest for. Low melody durations appear below the staff

Tablature Legend
----------------
 h   - hammer-on
 p   - pull-off
 b   - bend
 pb  - pre-bend
 r   - bend release (if no number after the r, then release immediately)
 /\  - slide into or out of (from/to "nowhere")
 s   - legato slide
 S   - shift slide
  - natural harmonic
[n]  - artificial harmonic
n(n) - tapped harmonic
 ~   - vibrato
 tr  - trill
 T   - tap
 TP  - trem. picking
 PM  - palm muting
\n/  - tremolo bar dip; n = amount to dip
 \n  - tremolo bar down
 n/  - tremolo bar up
/n\  - tremolo bar inverted dip
 =   - hold bend; also acts as connecting device for hammers/pulls
 <>  - volume swell (louder/softer)
 x   - on rhythm slash represents muted slash
 o   - on rhythm slash represents single note slash

Misc Legend
-----------
 |  - bar
||  - double bar
||o - repeat start
o|| - repeat end
*|  - double bar (ending)
 :  - bar (freetime)
 $  - Segno
 &  - Coda
Tempo markers -  = BPM(8/16=s8/s16), where s8 = swing 8ths, s16 = swing 16ths


****************************************************************************
****************************************************************************
            
Tabs too difficult? Try these video lessons and learn fast.




comments powered by Disqus
↑ Back to top | Tablatures and chords are parodies/interpretations of the original songs. You may use it for private study, scholarship, research or language learning purposes only