» » »

Outside Is The Drama Tabs (ver.1)

Artists:  A B C D E F G H I J K L M N O P Q R S T U V W X Y Z # 

Outside Is The Drama Tabs (ver.1)

Karate
Rating:
0/5 (0 votes)

Tabs too difficult? Try these video lessons and learn fast.
                -------------------------------------------------------------------------------
-------------------------------------------------------------------------------

Tuning: Standard

e|-------------------------------------------2---------------------------------|
B|-5-5-5--3--2~------------------------------2----------3----------------------|
G|-0-0-0--0--0~------------------------------3----------0----------------------|
D|-.-.-.--.--2~--2-2-2-2-2-2-2-2-2-2-------4--------4-5-5--5-------------------|
A|-7-7-7--5--0~--0-0-0-0-0-0-0-0-0-0-2-3-4-4---3-4-5---------------------------|
E|-----------------------------------------2-----------------------------------|
                 (Palm-mute)

e|----------------------------2-----------0----------------------------------|
B|----------------------------2-----------0----------------------------------|
G|----------------------------3---------4-4----4---4---4---4---4---4---4-----|
D|2-2-2-2-2-2-2-2-2-2-------4---------4---4---4-4-4-4-4-4-4-4-4-4-4-4-4-4----|
A|0-0-0-0-0-0-0-0-0-0-2-3-4-4---4-3-2-----2--2---2---2---2---3---3---3---3---|
E|--------------------------2------------------------------------------------|

e|------------------------------------------0--------0-----------------------|
B|--------------------------------------------0-----0---all.this.repeats-----|
G|---4---4---4---4------4-------4-------3-------3--3-------------------------|
D|--4-4-4-4-4-4-4-4---4---4---4---4---4---4-------4--------------------------|
A|-2---2---2---2----2-------2-------2----------------------------------------|
E|---------------------------------------------------------------------------|
                                                 (^Above - arpeggio)
e|---------------------------------------------------------------------------|
B|-repeats-------------------------------------------------------------------|
G|-7-6-4-----2-4-4-4-4-2-2-2--2-6-6-6-6-2-2-2--------------------------------|
D|---------------------------------------------------------------------------|
A|-----------0-2-2-2-2-0-0-0--0-4-4-4-4-0-0-0--------------------------------|
E|---------------------------------------------------------------------------|
This last bit is incomplete, it's right after the middle of the song.

| /  slide up
| \  slide down
| h  hammer-on
| p  pull-off
| ~  vibrato
| +  harmonic
| .  Mute note
===============================================================================
            
Tabs too difficult? Try these video lessons and learn fast.




comments powered by Disqus
↑ Back to top | Tablatures and chords are parodies/interpretations of the original songs. You may use it for private study, scholarship, research or language learning purposes only