» » »

Empire Bass tabs (ver.2)

Artists:  A B C D E F G H I J K L M N O P Q R S T U V W X Y Z # 

Empire Bass tabs (ver.2)

Kasabian
Rating:
4/5 (3 votes)
Tabs too difficult? Try these video lessons and learn fast.
                Ok here is THE ONLY correct tab, I had to do it myself, and I can assure You this is 
Basically the tabs I have seen for all the main riffs are correct, but I felt the chorus is 
so Im going to do that

VERSE: (Listen For string changes, it wil lbe obvious when to change)

G:-0--0--0--0--0--0--0--|
D:2-2--2--2--2--2--2--2-|
A:----------------------|
E:----------------------|

G:-----------------------|
D:-0--0--0--0--0--0--0---|
A:2--2--2--2--2--2--2--2-|
E:-----------------------|

G:-----------------------|
D:-----------------------|
A:-0--0--0--0--0--0--0---|
E:2--2--2--2--2--2--2--2-|

CHORUS: (Listen for timing and rhythm0

G:-----------------------------------------|
D:-----------------------------------------|
A:7-7-7-7-10-10-10-10----------------------|
E:---------------------7-7-7-7-10-10-10-10-|
            
Tabs too difficult? Try these video lessons and learn fast.


comments powered by Disqus
↑ Back to top | Tablatures and chords are parodies/interpretations of the original songs. You may use it for private study, scholarship, research or language learning purposes only