» » »

Fire Tabs (ver.7)

Artists:  A B C D E F G H I J K L M N O P Q R S T U V W X Y Z # 

Fire Tabs (ver.7)

Kasabian
Rating:
0/5 (0 votes)

Tabs too difficult? Try these video lessons and learn fast.
                i'm making an update for this song. my previous version wasn't correct, and i wrote it 
a different key. im very sure that this is how Kasabian play it.

first of all it starts with this single barré chord: then at 0:12, two additional chords 
being played.
NOTE: this is just an example, i haven't written the exact number of strums.
this part is being played in all the verses.
e-------------------|-------------------------------------------|
b-------------------|-------------------------------------------|
g-------------------|-------------------------------------------|
d-10-10-10-10-10-10-|-10-10-10-10--13-13-13-13--8-8-10-10-10-10-|
a--8--8--8--8--8--8-|--8--8--8--8--11-11-11-11--6-6--8--8--8--8-|
E--8--8--8--8--8--8-|--8--8--8--8--11-11-11-11--6-6--8--8--8--8-|


CHORUS: there wasn't enough space to write the whole chorus on one line,
so i wrote the last part of the chorus underneath.
e------------------------------------------------|---------------------------|
b------------------------------------------------|---------------------------|
g------------------------------------------------|---------------------------|
d-10-10-10-10-10--15-15-15-15-15--13-13-13-13-13-|-13-13-13-13-13--8-8-8-8-8-|
a-10-10-10-10-10--15-15-15-15-15--13-13-13-13-13-|-13-13-13-13-13--8-8-8-8-8-|
E--8--8--8--8--8--13-13-13-13-13--11-11-11-11-11-|-11-11-11-11-11--6-6-6-6-6-|

CHORUS:
----------------|
----------------|
----------------|
-10-10-10-10-10-|
-10-10-10-10-10-|
--8--8--8--8--8-|

Lead guitar riff in the chorus: doesn't sound like a guitar, but it is.
e-8--6--8--11--8--6--8--6--3--3--1--3--1-----------------|
b--------------------------------------------------------|
g----------------------------------------3--3--5--3--5---|
d--------------------------------------------------------|
a--------------------------------------------------------|
E--------------------------------------------------------|

 Lead Guitar: there's a little variation in the last chorus
e-8--6--8--11--8--6--8--6--3--8--6--8--6--3--1------------------|
b---------------------------------------------------------------|
g-----------------------------------------------3--3--5--3--5---|
d---------------------------------------------------------------|
a---------------------------------------------------------------|
E---------------------------------------------------------------|
            
Tabs too difficult? Try these video lessons and learn fast.


comments powered by Disqus
↑ Back to top | Tablatures and chords are parodies/interpretations of the original songs. You may use it for private study, scholarship, research or language learning purposes only