» » »

Goodbye Kiss Chords (ver.3)

Artists:  A B C D E F G H I J K L M N O P Q R S T U V W X Y Z # 

Goodbye Kiss Chords (ver.3)

Kasabian
Rating:
0/5 (0 votes)

Tabs too difficult? Try these video lessons and learn fast.
                
Tuning: standard
Chords used:
G      - 320003
Am     - x02210
Amsus2 - x02200
C      - x32010
D5     - x577xx
C5     - x355xx
B5     - x244xx
F      - 133211
Em     - 022000
D      - xx0232
Dm     - xx0231
 
Intro:
   G     G     Am Amsus2
e|-3-----3-----0-0-0-0-2-0---0---2-2-0---0-2-|
B|-0-----0-----1-0-1-0-----3---3-------3-----|
G|-0-----0-----2-2-2-2-----------------------|
D|-0-----0-----2-2-2-2-----------------------|
A|-2---0-2-0-2-0-0-0-0-----------------------|
E|-3-2---3-----------------------------------|


Verse Pattern: 
   G     G     C  D5 C5 B5 G
e|-3-----3-----0--x--x--x--3------------|
B|-0-----0-----1--x--x--x--0------------|
G|-0-----0-----0--7--5--4--0------------|
D|-0-----0-----2--7--5--4--0------------|
A|-2---0-2-0-2-3--5--3--2--2------------|
E|-3-2---3-----------------3------------|


G       riff1    G
Doomed from the start,
riff2         C           
We met with a goodbye kiss
D5 C5 B5   G   riff1  
I broke my wrist,
    G               riff1   G
It all kicked off I had no choice,
riff2   C             
You said that you didn't mind,
D5 C5 B5   G                 D5 C5 B5   
Cause love's hard to find.    La La La La

Prechorus:
Am                            F
Maybe the days we had are gone,
                              Am
Living in silence for too long,
                               F  
Open your eyes and what do you see,
D
No more laughs,
               Dm   (let ring)
No more photographs.

Chorus:
G            riff3
Turning slowly,
Em
Looking back, see,
C
No-one can save this,
D
You're broken and I'm p**sed,
G                        riff3
Run along like I'm supposed to,
Em
Be the man I ought to,
C
Rock and Roll sent us insane,
D
I hope someday that we will meet again.

Verse:

Running wild,
Giving it everyone,
Now that's all done,
Cause we burnt out, that's what you do,
When you have everything,
It can't be true.

Prechorus:
                                      
Maybe the days we had are gone,
Living in silence for too long,
Open your eyes and what do you see,
Let's stand,
Let go of my hand.

Chorus:

Turning slowly,
Looking back, see,
No-one can save this,
You're broken and I'm p**sed,
Run along like I'm supposed to,
Be the man I ought to,
Rock and Roll sent us insane,
I hope someday that we will meet again.

You go your way,
And I'll go my way,
No-one can save us,
This lifestyle made us,
Run along like I'm supposed to,
Be the man I ought to,
Rock and Roll sent us insane,
I hope someday that we will meet again.


Riffs:
   riff1        riff2         riff3  
e|---------------------------------------------|
B|---------------------------------------------|
G|---------------------------------------------|
D|---------------------------------------------|
A|-----0--------0--2---------------------------|
E|--2---------------------------2--------------|

Note:
If you have any corrections or improvements to the tab write
them on the comments section, or send me a message,
or e-mail, so we can together make this tab even better.  
            
Tabs too difficult? Try these video lessons and learn fast.


comments powered by Disqus
↑ Back to top | Tablatures and chords are parodies/interpretations of the original songs. You may use it for private study, scholarship, research or language learning purposes only