» » »

Shoot The Runner Tabs (ver.4)

Artists:  A B C D E F G H I J K L M N O P Q R S T U V W X Y Z # 

Shoot The Runner Tabs (ver.4)

Kasabian
Rating:
0/5 (0 votes)

Tabs too difficult? Try these video lessons and learn fast.
                e|-------------8----------------------------------------------------------------|
B|--10--8--h10----10--8-------------------8----8--10----------------------------|
G|----------------------9/////////--7--h9-----9---------------------------------|
D|------------------------------------------------------------------------------|
A|------------------------------------------------------------------------------|
E|------------------------------------------------------------------------------|
Later
e|--7-7-7~~-7~~--12-7-5-3-h5-0---------5--3--------------------0--3--h5------------|
B|-------------------------------3-0--3-------0--h3--0---0--3-0--------------------|
G|-----------------------------------------------------2---------------------------|
D|---------------------------------------------------------------------------------|
A|---------------------------------------------------------------------------------|
E|---------------------------------------------------------------------------------|
Last Part
e|------------------------------11--------------------------------------------------|
B|------------------------------9-----------------------10-----10-------------------|
G|--9~9~9~//14~14~14~\\-9~9~9~---16\\-9//-16\\-9--7-7----7-7------------------------|
D|----------------------------------------------------------------------------------|
A|----------------------------------------------------------------------------------|
E|----------------------------------------------------------------------------------|
Well, its about right so enjoy and please rate!!
            
Tabs too difficult? Try these video lessons and learn fast.




comments powered by Disqus
↑ Back to top | Tablatures and chords are parodies/interpretations of the original songs. You may use it for private study, scholarship, research or language learning purposes only