>
 >
Where Did All The Love Go

Where Did All The Love Go Bass Tabs

Kasabian - Where Did All The Love Go chords, tabs, tablatures, lyrics

Guitar lessons | Add/correct | Request | Top 50 tabs Artists:  A B C D E F G H I J K L M N O P Q R S T U V W X Y Z 0-9

Where Did All The Love Go Bass Tabs – Kasabian

CD, Sheet music, Poster

Do you like Where Did All The Love Go? Share with your friends now
Bass TabsBass Tabs v2ChordsChords v2Chords v3TabsUkulele
Note: tabs marked '11' mean tab '11', not '1'.


Intro - 8 bars intro, bass plays in last 4 bars

G -----------------------------------------------------------------------------|
D 66666666666666666666666666666666---------------------------------------------|
A -----------------------------------------------------------------------------|
E -----------------------------------------------------------------------------|

1st Verse (2nd verse exactly the same)

G ----------------------------------------------------------------|
D 666666666666666666666666666666664444444-----999-6666646-6666646-|
A ---------------------------------------44444--------------------|
E ----------------------------------------------------------------|

G ---6-8---686----6-8---696----------------------------------|
D 666---6-9---9666---6-9---9-4444444-----999-6666646-6666646-|
A ----------------------------------44444--------------------|
E -----------------------------------------------------------|

 (leads into chorus)

Chorus x2
G ---------------------------------------------------------------|
D 466466646666-99-466466646666-99--------------------------55555-|
A -------------------------------58858885888-44-58858885888------|
E ---------------------------------------------------------------|


Bass Solo

G ----------------------|
D 6-66-6-66-6-66-999998-|
A ----6----6----6-------|
E ----------------------|

(then back into 2nd verse - exactly the same as 1st verse)

Chorus - slightly different, accenting the notes)

G------------------------------------------------------------------------4-6-|
D 6-66-6-66-99-6-66-6-66-99----------------------55-6-66-6-66-99-6-66-6-8----|
A -------------------------7-77-7-77-44-7-77-7-77----------------------------|
E ---------------------------------------------------------------------------|


G ----------------------------|
D ----------------------55555-|
A 7-77-7-77-44-7-77-7-77------|
E ----------------------------|

Section starting "the rivers on the pavement..."
(repeat twice -then back into chorus which you only play once round)
G -----------------------------------------|
D 6666666644444444--------1111111111111111-|
A ----------------77777777-----------------|
E -----------------------------------------|


Pause for the minor downwards scale, then guitar solo 1st time round, second time 
round, bass comes in -

G ----------------------------------------------------------|
D 6666666646666664666666-99811-6666666646666664666666-99811-|
A ----------------------------------------------------------|
E ----------------------------------------------------------|

Another Pause, then back to acoustic and vocal when the lyric states "in this social
bass comes in on the "you've gotta keep your wits about you..."


G -------------------------------------------------------------------------|
D 6666666644444444--------111111111111111111111111111111111111111111111111-|
A ----------------77777777-------------------------------------------------|
E -------------------------------------------------------------------------|

(then back to chorus)

G ---------------------------------------------------------------|
D 466466646666-99-466466646666-99--------------------------55555-|
A -------------------------------58858885888-44-58858885888------|
E ---------------------------------------------------------------|

G ----------------------------4-6----------------------------------|
D 466466646666-99-46646664-6-8-------------------------------55555-|
A -------------------------------58858885888-44-58858885888--------|
E -----------------------------------------------------------------|

END





Comments


Popular Kasabian tabs & chords
Vlad The Impaler Bass Tabs
Benefical Herbs 1 Chords
Empire Chords
Lets Roll Just Like We Used To Chords
Lsf 1 Chords
Underdog Chords
Underdog 3 Chords
Shoot The Runner 1 Tabs
Underdog Live Tabs
Velociraptor 1 Tabs


Song lyrics



↑ Back to top | Tablatures and chords are parodies/interpretations of the original songs. You may use it for private study, scholarship, research or language learning purposes only
© 2014 AZChords.com Contact us | Privacy policy | DMCA | Add/correct tabs | Request tabs | Top 50 tabs