» » »

That's The Way I Like It Bass tabs (ver.1)

Artists:  A B C D E F G H I J K L M N O P Q R S T U V W X Y Z # 

That's The Way I Like It Bass tabs (ver.1)

Kc And The Sunshine Band
Rating:
0/5 (0 votes)

Tabs too difficult? Try these video lessons and learn fast.
                Riff

G||-------------------------|----------------------------||
D||*------------------------|------1--3---------3--3-1--*||
A||*---------------3--------|-------------------------3-*||
E||---1---3---4-------4--3--|--1-------------------------||


G||-------------------------|----------------------------||
D||*------------------------|------1--3---------3--3-1--*||
A||*---------------33-------|-------------------------3-*||
E||---1---3---4-------4--3--|--1-------------------------||


Verse

G||--------------35-5-------|
D||*------------------------|
A||*---33----1-----------1--|
E||-------3---3--------3----|


turco:)
            
Tabs too difficult? Try these video lessons and learn fast.




comments powered by Disqus
↑ Back to top | Tablatures and chords are parodies/interpretations of the original songs. You may use it for private study, scholarship, research or language learning purposes only