» » »

Not An Addict Bass tabs (ver.3)

Artists:  A B C D E F G H I J K L M N O P Q R S T U V W X Y Z # 

Not An Addict Bass tabs (ver.3)

K\\\'s Choice
Rating:
0/5 (0 votes)

Tabs too difficult? Try these video lessons and learn fast.
                Hello, 

I'm Trying for the first time to make my own tabs.. so.. 
Here we go!

p.s. If you have got any questions.. you can send me an email!

G:|----------R----------|
D:|----------R----------|
A:|----------R----------|
E:|----------R----------|
Wait for the 4 times Uh huh

G:|-------------------------------------------------------------------|
D:|----------------------------------------------------------1-2-1----|
A:|-0-0-0-0-0-0-0-0-4-4-4-4-4-4-4-4-2-2-2-2-2-2-2-2--2-2-2-2-------2--|
E:|-------------------------------------------------------------------|

G:|-------------------------------------------------------------------|
D:|-------------------------------------------------------------------|
A:|-0-0-0-0-0-0-0-0-4-4-4-4-4-4-4-4-2-2-2-2-2-2-2-2--2-2-2-2-2-2-4-0--|
E:|-------------------------------------------------------------------|
  Repeat 3 times

G:|-----------------------------------|
D:|-----------------------------------|
A:|-----------------------------------|
E:|-0-0-0-0-2-2-2-2-5-5-5-5-5-5-5-0---|

G:|----------------------------------------------------|
D:|----------------------------------------------------|
A:|----------------------------------------------------|
E:|-0-0-0-0-2-2-2-2-5-5-5-5-5-5-5-5--5-5-5-5-5-5-5-0---|

G:|-------------------------------------------------------------------|
D:|-------------------------------------------------------------------|
A:|-0-0-0-0-0-0-0-0-4-4-4-4-4-4-4-4-2-2-2-2-2-2-2-2--2-2-2-2-2-2-4-0--|
E:|-------------------------------------------------------------------|
  Repeat 2 times

G:|-----------------------------------|
D:|-----------------------------------|
A:|-----------------------------------|
E:|-0-0-0-0-2-2-2-2-5-5-5-5-5-5-5-0---|
  Repeat 2 times

G:|----------------------------------------------------|
D:|----------------------------------------------------|
A:|----------------------------------------------------|
E:|-0-0-0-0-2-2-2-2-5-5-5-5-5-5-5-5--5-5-5-5-5-5-5-0---|

G:|-------------------------------------------------------------------|
D:|----------------------------------------------------------1-2-1----|
A:|-0-0-0-0-0-0-0-0-4-4-4-4-4-4-4-4-2-2-2-2-2-2-2-2--2-2-2-2-------2--|
E:|-------------------------------------------------------------------|

G:|-------------------------------------------------------------------|
D:|-------------------------------------------------------------------|
A:|-0-0-0-0-0-0-0-0-4-4-4-4-4-4-4-4-2-2-2-2-2-2-2-2--2-2-2-2-2-2-4-0--|
E:|-------------------------------------------------------------------|
  Repeat 2 times

G:|-----------------------------------|
D:|-----------------------------------|
A:|-----------------------------------|
E:|-0-0-0-0-2-2-2-2-5-5-5-5-5-5-5-0---|
  Repeat 2 times

G:|----------------------------------------------------|
D:|----------------------------------------------------|
A:|----------------------------------------------------|
E:|-0-0-0-0-2-2-2-2-5-5-5-5-5-5-5-5--5-5-5-5-5-5-5-0---|

G:|-------------------------------------|
D:|-------------------------------------|
A:|-7-7-7-7-7-7-7777-5-5-5-5-5-5-5555---|
E:|-------------------------------------|

G:|---------------------|
D:|---------------------|
A:|14/(2)-14-1414/(2)---|
E:|---------------------|
  Repeat 2 times

G:|-------------------------------------|
D:|-------------------------------------|
A:|-7-7-7-7-7-7-7777-5-5-5-5-5-5-5555---|
E:|-------------------------------------|

G:|---------------------|
D:|---------------------|
A:|14/(2)-14-1414/(2)---|
E:|---------------------|
  Repeat 2 times

G:|---------------------------|
D:|---------------------------|
A:|-3-3-3-3-3-3-3-3==========-|
E:|---------------------------|

G:|-----------------------------------|
D:|-----------------------------------|
A:|-----------------------------------|
E:|-0-0-0-0-2-2-2-2-5-5-5-5-5-5-5-0---|
  Repeat 7 times

G:|-----------------------------------|
D:|-----------------------------------|
A:|-----------------------------------|
E:|-0-0-0-0-2-2-2-2-5-5-5-5-5-5-2-4---|

G:|-----------------------------------|
D:|-----------------------------------|
A:|-----------------------------------|
E:|-0-0-0-0-2-2-2-2-5-5-5-5-5-5-5-0---|

G:|-----------------------------------|
D:|-----------------------------------|
A:|-----------------------------------|
E:|-0-0-0-0-2-2-2-2-5-5-5-5-5-5-2-4---|
  Repeat 2 times

G:|-----------------------------------|
D:|-----------------------------------|
A:|-0-----------------0---------------|
E:|-----------------------------------|
            
Tabs too difficult? Try these video lessons and learn fast.




comments powered by Disqus
↑ Back to top | Tablatures and chords are parodies/interpretations of the original songs. You may use it for private study, scholarship, research or language learning purposes only