>
 >
Shut Me Out

Shut Me Out Bass Tabs

Kutless - Shut Me Out chords, tabs, tablatures, lyrics

Guitar lessons | Add/correct | Request | Top 50 tabs Artists:  A B C D E F G H I J K L M N O P Q R S T U V W X Y Z 0-9

Shut Me Out Bass Tabs – Kutless

CD, Sheet music, Poster

Do you like Shut Me Out? Share with your friends now
Bass TabsBass Tabs v2ChordsTabsTabs v2Tabs v3Tabs v4Ukulele
Kutless - Shut Me Out

/=slide up
\=slide down
~=let ring

this is my first tab so I hope you like it

Intro
G|--------------------------------|
D|--------------------------------|
A|--4-------4-------4-----00000/2-| 2X
E|----251-----251-----251---------|
B|2-------2-------2---------------|
	
Verse 1
G|--------------------------------------|
D|--------------------------------------|
A|----2x16--------2x16------------------|
E|--------2x16--------2x16--------------|
B|2x16--------2x32--------2x8-444--555--|

Pre-Chorus
G|--------------------------------|
D|--------------------------------|
A|---------444-------------3~~~~~-|
E|222--------------222------------|
B|--------------------------------|

Chorus 1
G|-----------------------------------|
D|-----------------------------------|
A|-----4-------4-------4-----00000/2-| 2X
E|-------251-----251-----251---------|
B|14\2-------2-------2---------------|
	
Verse 2
G|--------------------------------------|
D|--------------------------------------|
A|----2x16--------2x16------------------|
E|--------2x16--------2x16--------------|
B|2x16--------2x32--------2x8-444--555--|
	

Pre-Chorus
G|--------------------------------|
D|--------------------------------|
A|---------444-------------3~~~~~-|
E|222--------------222------------|
B|--------------------------------|

Chorus 2
G|-----------------------------------     --------|
D|-----------------------------------     --------|
A|-----4-------4-------4-----00000/2- 2X  --------|
E|-------251-----251-----251---------     ---2--2-|
B|14\2-------2-------2---------------     -22-22--|
	
Guitar Solo
G|----------------------------------------------------|
D|----------------------------------------------------|
A|----------------------------------------------------|
E|5x16-6x8-222444777-5x16-6x8-22244477755544400-------|
B|---------------------------------------------2~~~~~-|
	
Chorus 3
G|-----------------------------------     -------------|
D|-----------------------------------     -------------|
A|-----4-------4-------4-----00000/2- 4X  -------------|
E|-------251-----251-----251---------     ---2--2~~~~~-|
B|14\2-------2-------2---------------     -22-22-------|





Comments


Popular Kutless tabs & chords
Everything I Need 1 Chords
Jesus Lord Of Heaven 1 Chords
Promise Of A Lifetime 2 Chords
Strong Tower 1 Chords
Draw Me Close Tabs
New Years Vow Tabs
Strong Tower 2 Tabs
The Disease The Cure Intro Tabs
Treason Tabs
Troubled Heart Tabs


Song lyrics



↑ Back to top | Tablatures and chords are parodies/interpretations of the original songs. You may use it for private study, scholarship, research or language learning purposes only
© 2014 AZChords.com Contact us | Privacy policy | DMCA | Add/correct tabs | Request tabs | Top 50 tabs