>
 >
 >
Contact 1

Contact 1 Guitar Tabs

Kyo - Contact 1 chords, tabs, tablatures, lyrics

Guitar lessons | Add/correct | Request | Top 50 tabs Artists:  A B C D E F G H I J K L M N O P Q R S T U V W X Y Z 0-9

Contact 1 Guitar Tabs – Kyo

CD, Sheet music, Poster

Do you like Contact 1? Share with your friends now
ChordsTabsTabs v2Ukulele
---------------------------- Contact - KYO ---------------------------------

Tuning: EADGBe

Guitar 1: distortion ... EADGBe
Guitar 2: distortion ... EADGBe

INTRO:

(0:00 - 0:05)
e|-----------------------------------|
B|-----------------------------------|
G|-----------------------------------|
D|-4-4-xx-4-4~-42~-4-4-xx-444-4-xxxx-|  x1
A|-4-4-xx-4-4~-42~-4-4-xx-444-4-xxxx-|
E|-2-2-xx-2-2~-2---2-2-xx-222-2-xxxx-|

(0:06 - 0:16)
e|-----------------------------------|
B|-----------------------------------|
G|-----------------------------------|
D|-4-4-xx-4-4~-42~-4-4-xx-4-4-4-xxxx-|  x2
A|-4-4-xx-4-4~-42~-4-4-xx-4-4-4-xxxx-|
E|-2-2-xx-2-2~-2---2-2-xx-2-2-2-xxxx-|
                              ^
                         (played faintly)

END ON

(0:17)
e|----|
B|----|
G|----|
D|-7~-|
A|-7~-|
E|-5~-|


VERSE:
(0:19 - 0:40)
                        (0:19 - 0:39)
                        <<>>
(0:29 - 0:39)
e|----------------------------------------------------|
B|----------------------------------------------------|
G|----6------6--7---6--5---6-------6------6--7---6--8-|
D|--5--5-5-55-5---55-5---55-5----5--5-5-55-5---55-5---|
A|-6-6--6-6----6-6----6-6----6--6-6--6-6----6-6----6--|
E|----------------------------------------------------|

BRIDGE:

(0:40 - 0:50)
e|-----------------------------------|
B|-----------------------------------|
G|-----------------------------------|
D|-4-4-xx-4-4~-42~-4-4-xx-4-4-4-xxxx-|  x2
A|-4-4-xx-4-4~-42~-4-4-xx-4-4-4-xxxx-|
E|-2-2-xx-2-2~-2---2-2-xx-2-2-2-xxxx-|
                              ^
                         (played faintly)

CHORUS:

(0:52 - 1:11)              
E|------------------|
B|------------------|
G|------------------|
D|-7~--11~--9~--7~--|    x2
A|-7~--11~--9~--7~--|
E|-5~---9~--7~--5~--|



VERSE:
(1:12 - 1:33)
                        (1:12 - 1:33)
                        <<>>
(1:23 - 1:33)
e|----------------------------------------------------|
B|----------------------------------------------------|
G|----6------6--7---6--5---6-------6------6--7---6--8-|
D|--5--5-5-55-5---55-5---55-5----5--5-5-55-5---55-5---|
A|-6-6--6-6----6-6----6-6----6--6-6--6-6----6-6----6--|
E|----------------------------------------------------|


BRIDGE:

(1:34 - 1:44)
e|-----------------------------------|
B|-----------------------------------|
G|-----------------------------------|
D|-4-4-xx-4-4~-42~-4-4-xx-4-4-4-xxxx-|  x2
A|-4-4-xx-4-4~-42~-4-4-xx-4-4-4-xxxx-|
E|-2-2-xx-2-2~-2---2-2-xx-2-2-2-xxxx-|
                              ^
                         (played faintly)

CHORUS:

(1:45 - 2:06)              
E|------------------|
B|------------------|
G|------------------|
D|-7~--11~--9~--7~--|    x2
A|-7~--11~--9~--7~--|
E|-5~---9~--7~--5~--|


INTERVAL: (2:07 - 2:16)

BRIDGE:

(2:17 - 2:22)
e|-----------------------------------|
B|-----------------------------------|
G|-----------------------------------|
D|-4-4-xx-4-4~-42~-4-4-xx-444-4-xxxx-|  x1
A|-4-4-xx-4-4~-42~-4-4-xx-444-4-xxxx-|
E|-2-2-xx-2-2~-2---2-2-xx-222-2-xxxx-|

(2:23 - 2:28)
e|-----------------------------------|
B|-----------------------------------|
G|-----------------------------------|
D|-4-4-xx-4-4~-42~-4-4-xx-4-4-4-xxxx-|  x1
A|-4-4-xx-4-4~-42~-4-4-xx-4-4-4-xxxx-|
E|-2-2-xx-2-2~-2---2-2-xx-2-2-2-xxxx-|
                              ^
                         (played faintly)

CHORUS:

(2:28 - 2:49 [ hold last note a little longer])              
E|------------------|
B|------------------|
G|------------------|
D|-7~--11~--9~--7~--|    x2
A|-7~--11~--9~--7~--|
E|-5~---9~--7~--5~--|

INTERVAL 2: 

(2:50 - 3:11)

~~GUITAR 1~~

[played at same time as chord below is played]
e|---------|
B|---------|
G|---------|
D|---------|
A|-5h6h7p6-|
E|---------|

~~GUITAR 2~~

E|------------------|
B|------------------|
G|------------------|
D|-7~--11~--9~--7~--|    x2
A|-7~--11~--9~--7~--|
E|-5~---9~--7~--5~--|

END ON [from last chord from piece above ^^^^^]

(3:08)
e|----|
B|----|
G|----|
D|-7~-|
A|-7~-|
E|-5~-|
                               (3:12 - 3:41)
                        <<<>>> 





Comments


Popular Kyo tabs & chords
Ce Soir Chords
Derniere Danse 1 Chords
Je Te Vends Mon Ame Chords
Sarah Chords
Comment Te Dire Tabs
Fermons Les Yeux Tabs
Je Te Reve Encore Tabs
Tout Envoyer En L'air Tabs
Une Derniere Danse 1 Tabs
Mes Racines Et Mes Ailes Ukulele


Song lyrics



↑ Back to top | Tablatures and chords are parodies/interpretations of the original songs. You may use it for private study, scholarship, research or language learning purposes only
© 2014 AZChords.com Contact us | Privacy policy | DMCA | Add/correct tabs | Request tabs | Top 50 tabs