» » »

One More Thing Bass tabs (ver.1)

Artists:  A B C D E F G H I J K L M N O P Q R S T U V W X Y Z # 

One More Thing Bass tabs (ver.1)

L7
Rating:
0/5 (0 votes)

Tabs too difficult? Try these video lessons and learn fast.
                Band:L7


Album:Bricks Are Heavy


Tuning:Standard


Verse
G------------------------------------|
D------------------------------------|
A------------------------------------|
E-1--1-1-6-6-6-6-4--4-4--4-4-4-4-4-3-|


Chorus
G--------------------------------|--------------------------------|
D--------------------------------|--------------------------------|
A--------4-4-4-------------------|--------4-4-4-------------------|
E-6--6-6-------6--4-4--2-4-6-6-6-|-6--6-6-------6--4-4--2-4-6-6-6-|


Chorus(Continued)
G---------------------------------|---------------------------------|
D---------------------------------|---------------------------------|
A---------4-4-4-4-----------------|---------4-4-4-4-----------------|
E-6-6-6-6---------4-4-4-4-6-6-6-6-|-6-6-6-6---------4-4-4-4-6-6-6-6-|
            
Tabs too difficult? Try these video lessons and learn fast.


comments powered by Disqus
↑ Back to top | Tablatures and chords are parodies/interpretations of the original songs. You may use it for private study, scholarship, research or language learning purposes only