» » »

Hollywood Tease Bass tabs (ver.1)

Artists:  A B C D E F G H I J K L M N O P Q R S T U V W X Y Z # 

Hollywood Tease Bass tabs (ver.1)

La Guns
Rating:
0/5 (0 votes)
Tabs too difficult? Try these video lessons and learn fast.
                -----------------------------------------------------------------------------------
                             Hollywood Tease - LA Guns
-----------------------------------------------------------------------------------



Tuning: Standard

Intro
G|-----------------------------------7-----------------------------------|
D|---7---------------10--------------------------------------------------|
A|-----------------------------------5-----------------------------------|
E|---5---------------8-------------------------------0-------------------|

G|------------------|-------------------------------------------------------------|
D|------------------|o-----------------------------------------------------------o|
A|------------------|o----------7-7-7-----------7-7-7-----------7-7-7---3-3---5--o|
E|--5---------------|---0-0-0-----------0-0-0-----------0-0-0---------------3-----|

Verse 1                                                Repeat x4
G|--------------------------------------------------------------|
D|o------------------------------------------------------------o|
A|o----------7-7-7-----------7-7-7-----------7-7-7---3-3---5---o|
E|---0-0-0-----------0-0-0-----------0-0-0---------------3------|

Chorus
G|------------------------------------------------------------------|
D|o----------------------------------------------------------------o|
A|o------------------------------------------------------3-3---5---o|
E|---5-5-5---5-5-5/17-17-17---17-17-17---5-5-5---5-5-5-------3------|

Verse 2                                                Repeat x4
G|--------------------------------------------------------------|
D|o------------------------------------------------------------o|
A|o----------7-7-7-----------7-7-7-----------7-7-7---3-3---5---o|
E|---0-0-0-----------0-0-0-----------0-0-0---------------3------|

Chorus                                                    
G|--------------------------------------------------------------------|
D|o------------------------------------------------------------------o|
A|o-----------------/12-10------10-------------------------3-3---5---o|
E|---5-5-5---5-5-5---------12------12-10---5-5-5---5-5-5-------3------|

Bridge
G|---------------------------------------------------------------------|
D|---------------------------------------------------------------------|
A|-----------------------------3---------------------------------------|
E|---0-0-------------0-0---------3---0-0-------------0-0-----0-2-3-4---|

Guitar Solo               Repeat x3
G|---------------------------------|-------------------------------|
D|o-------------------------------o|-------------------------------|
A|o----------------------------3--o|-----------------------2-3-4---|
E|---5-5-5---5-5-5---5-5-5---3-----|---5-5-5---5-5-5---5-5---------|

                          Repeat x4
G|---------------------------------|
D|o----------------------------3--o|
A|o--5-5-5---5-5-5---5-5-5---3----o|
E|---------------------------------|

G|-------------------------------------------------------------|
D|-------------------------------------------------------------|
A|---7-7-7-----------7-7-7-----------7-7-7-----------3-3---5---|
E|-----------0-0-0-----------0-0-0-----------0-0-0-------3-----|

G|---------------------------------------------------------------|
D|---------------------------------------------------------------|
A|---7-7-7-----------7-7-9-9-10-10-----7-7-7-----------3-3---5---|
E|-----------0-0-0-----------------0-----------0-0-0-------3-----|

Outro
G|--------------------------------------------------------------|
D|--------------------------------------------------------------|
A|-----------7-7-7-----------7-7-7-----------7-7-7---3-3---5----|
E|---0-0-0-----------0-0-0-----------0-0-0---------------3------|

G|--------------------------------------------------------------------|
D|--------------------------------------------------------------------|
A|-----------7-7-7-----------7-7-7-----------7-7-7---3-3-3------------|
E|---0-0-0-----------0-0-0-----------0-0-0-------------------3-3-3----|

G|-----------------------------------------------------|
D|-----------------------------------------------------|
A|---3-3-3-----------3-3-3---5-5-5---7-7---------------|
E|-----------3-3-3-----------------------0-------------|


| /  slide up
| \  slide down
| h  hammer-on
| p  pull-off
| ~  vibrato
| +  harmonic
| x  Mute note
===============================================================================
            
Tabs too difficult? Try these video lessons and learn fast.


comments powered by Disqus
↑ Back to top | Tablatures and chords are parodies/interpretations of the original songs. You may use it for private study, scholarship, research or language learning purposes only