» » »

Turn It Around Tabs (ver.1)

Artists:  A B C D E F G H I J K L M N O P Q R S T U V W X Y Z # 

Turn It Around Tabs (ver.1)

La Guns
Rating:
0/5 (0 votes)

Tabs too difficult? Try these video lessons and learn fast.
                |----------------------------------------------------15b17~r15-----15b17-15b17—-15b17~r15--|
|-8------------12\13~-13-12~--12-13-15~-13~-12\13-12---------------------------------------|
|---7~~---8~~------------------------------------------------------------------------------|
|-------8----------------------------------------------------------------------------------|
|------------------------------------------------------------------------------------------|
|------------------------------------------------------------------------------------------|

|-15-13-12-10--------------------------------------------------------------------------|
|-------------11---11-12-13-12-11-12-13—-12—-15---13—-15/13/12\13/12-12-13-------------|
|--------------------------------------------------------------------------14~b15~r14--|
|--------------------------------------------------------------------------------------|
|--------------------------------------------------------------------------------------|
|--------------------------------------------------------------------------------------|

|-------------------12b13r12-14-15-15b17~--15b17r15b17r15-14~-15b17-15b17r15b17r15-14~-14/12\14------|
|-----------13~-15-----------------------------------------------------------------------------------|
|--12-13-15-------------------------------------------------------------------------------------13~--|
|----------------------------------------------------------------------------------------------------|
|----------------------------------------------------------------------------------------------------|
|----------------------------------------------------------------------------------------------------|

|--------------------------------------------------21b23~-21b23-21b23—21b23-20--|
|-----------------------------------21------------------------------------------|
|-----------------------------21-20—---20-21-20-20------------------------------|
|-14b15r14b15-14-19b21r19b21----------------------------------------------------|
|-------------------------------------------------------------------------------|
|-------------------------------------------------------------------------------|

|-----------------------------------------------------------|
|-20-19-17-19----------------------------------------20b22~-|
|-------—-——--20-18-18-17-18-18-20-18-18-17—18-18-17--------|
|-----------------------------------------------------------|
|-----------------------------------------------------------|
|-----------------------------------------------------------|

|-19b21r19-16-19~~-------------------------------------------------|
|------------------------------------------------------------------|
|-----------------10b11-9-7-9b10-7-9-7-9-10b11-9~----10b11-9-7-4~--|
|------------------------------------------------------------------|
|------------------------------------------------------------------|
|------------------------------------------------------------------|

                pm          .              .                  .
|-------------------------------------------------------------------------------------------------|
|----------------------16b18~--16b17-13-15-13-12-13-12-15-13-12-13--11-13-11----------------------|
|-~s17b18-17b18~-------------------------------------------------------------13b14r13b14r13b14r13-|
|-------------------------------------------------------------------------------------------------|
|-------------------------------------------------------------------------------------------------|
|-------------------------------------------------------------------------------------------------|
        .            .         .          .
|---------------------------------------------------------------------------------------------------------|
|---------------------------------------------------------------------------------------------12-13b14-13-|
|-11-12-12-11-9-11-8-9-8-7-8-7-7—6/7-6-7-6-5-7-6~-6-10~-11/13\11-10-11-10-13~b15-14/15\14-12-14-----------|
|---------------------------------------------------------------------------------------------------------|
|---------------------------------------------------------------------------------------------------------|
|---------------------------------------------------------------------------------------------------------|

|-----------------------------------------------------------------------------------------------------|
|----------------12-14b15-14--14-17b19r17-14-17b19r17-14-17b19r17-14-17b19r17-14-17b19r17-14-17b19r17-|
|-14/15\14-12-14--------------------------------------------------------------------------------------|
|-----------------------------------------------------------------------------------------------------|
|-----------------------------------------------------------------------------------------------------|
|-----------------------------------------------------------------------------------------------------|

|-------------------------------------------------------------|
|-14-17b19r17-14-17b19r17-14-17b19r17-14-17b19r17-14-17b19r17-|
|-------------------------------------------------------------|
|-------------------------------------------------------------|
|-------------------------------------------------------------|
|-------------------------------------------------------------|

|-----------------------------------------------------------------|
|-14-16b17r16-15-15-15-15-15-15-15-15-15-15-15-14-17b19r17-14-12~-|
|-------------\                        /-\   /--------------------|
|--------------\                      /---\ /---------------------|
|---------------\ bend from 15 to 17 / from 17 to 15 -------------|
|-----------------------------------------------------------------|

|------19----18---------------------------------------------16-17-19-21-20~--21b23~r21-20---------|
|---------17----17--19-17-16-14-13~----------17-18-20-18-19-------------------------------21b22~--|
|-slide-----------------------------13-15-17------------------------------------------------------|
|-------------------------------------------------------------------------------------------------|
|-------------------------------------------------------------------------------------------------|
|-------------------------------------------------------------------------------------------------|

|--19----19-18-16---------------------------------------16-------------16-------------|
|-----19----------17/15----16~-17b19-15-13--13-15b17-13----13-15b17-13----13-15b17~sd-|
|-----------------------16------------------------------------------------------------|
|-------------------------------------------------------------------------------------|
|-------------------------------------------------------------------------------------|
|-------------------------------------------------------------------------------------|

|-------------------------------------------------------------------------------------------------------|
|--------------------------------------------------9b11r9--------10b11~r10~------------------8-10-9-7~--|
|-7b8r7--9-10-9-7~--7-9-10-9-7-5-7-5-4~-5-7-9-10-9--------7-6~---------------7-9-10b11~r10~-------------|
|-------------------------------------------------------------------------------------------------------|
|-------------------------------------------------------------------------------------------------------|
|-------------------------------------------------------------------------------------------------------|


|------------------------------------------------------------------------------------------------|
|-10\11--11/10-10/9-8/7-6—9\10/9/8/7/6-----9\10-10\11--12/11/10/9--9-8-8-9-9-9\10-10\11-12-11~~--|
|------------------------------------------------------------------------------------------------|
|------------------------------------------------------------------------------------------------|
|------------------------------------------------------------------------------------------------|
|------------------------------------------------------------------------------------------------|
            
Tabs too difficult? Try these video lessons and learn fast.




comments powered by Disqus
↑ Back to top | Tablatures and chords are parodies/interpretations of the original songs. You may use it for private study, scholarship, research or language learning purposes only