» » »

Fredericus Rex Tabs (ver.1)

Artists:  A B C D E F G H I J K L M N O P Q R S T U V W X Y Z # 

Fredericus Rex Tabs (ver.1)

Landser
Rating:
0/5 (0 votes)

Tabs too difficult? Try these video lessons and learn fast.
                Kein 100% korrekter Tab, aber es reicht für den Anfang aus.

In den Rhytmuss muss man sich selber reinfinden. ^^
 
Intro (Solo)
|--------------------0------------------------------------------------------|
|--3-1--1--1--1--3-----3--1--0--1-------------------------------------------|
|---------------------------------------------------------------------------|
|---------------------------------------------------------------------------|
|---------------------------------------------------------------------------|
|---------------------------------------------------------------------------|

|---------------------------------------------------------------------------|
|--0-----------------1------------------------------------------------------|
|-----1--1--1--1--3-----3--1--2--1--0--1------------------------------------|
|---------------------------------------------------------------------------|
|---------------------------------------------------------------------------|
|---------------------------------------------------------------------------|

|---------------------------------------------------------------------------|
|--------------------------1--3--5------------------------------------------|
|--1--3--3--3--3--5--3--0---------------------------------------------------|
|---------------------------------------------------------------------------|
|---------------------------------------------------------------------------|
|---------------------------------------------------------------------------|

|---------------------------------------------------------------------------|
|--1/5--5--3--3--3--1--3--5--1--1--1--1-------------------------------------|
|---------------------------------------------------------------------------|
|---------------------------------------------------------------------------|
|---------------------------------------------------------------------------|
|---------------------------------------------------------------------------|



Mainriff (Lead)

|---------------------------------------------------------------------------|
|---------------------------------------------------------------------------|
|---------------5--x-x-x-x-5------------------------------------------------|
|--5--x-x-x-x-5-3--x-x-x-x-3--------------5-5-5-5-5-5-----------------------|
|--3--x-x-x-x-3--------------5--x-x-x-x-5-3-3-3-3-3-3-----------------------|
|----------------------------3--x-x-x-x-3-----------------------------------|



Refrain (Lead)
|---------------------------------------------------------------------------|
|---------------------------------------------------------------------------|
|-------------5-5-5-5-5-----------------------------------------------------|
|--5-5-5-5-5--3-3-3-3-3-------------5-5-5-5-5-------------------------------|
|--3-3-3-3-3-------------5-5-5-5-5--3-3-3-3-3-------------------------------|
|------------------------3-3-3-3-3------------------------------------------|

|---------------------------------------------------------------------------|
|---------------------------------------------------------------------------|
|---------------------------------------------------------------------------|
|--5-5-5-5-5--7-7-7-7-7-----------------------------------------------------|
|--3-3-3-3-3--5-5-5-5-5--7-7-7-7-7--9-9-9-9-9-------------------------------|
|------------------------5-5-5-5-5--7-7-7-7-7-------------------------------|



Solo (Solo)

|--4/7-7-7-7-7-7--4/7-7-7-7-7-7---10-10-12-12-10-x-8------------------------|
|--4/7-7-7-7-7-7--4/7-7-7-7-7-7---10-10-12-12-10-x-8------------------------|
|---------------------------------------------------------------------------|
|---------------------------------------------------------------------------|
|---------------------------------------------------------------------------|
|---------------------------------------------------------------------------|

|--0--0--1--3--3/5--3--1--0----------0--1--3--1--0--------------------------|
|------------------------------3--3-----------------3-----------------------|
|---------------------------------------------------------------------------|
|---------------------------------------------------------------------------|
|---------------------------------------------------------------------------|
|---------------------------------------------------------------------------|

|-----------0--1--0-------------------0-------------------------------------|
|--1--1--3-----------3--1----1--0--0-----3--1--0----------------------------|
|-------------------------------------------------2-------------------------|
|---------------------------------------------------------------------------|
|---------------------------------------------------------------------------|
|---------------------------------------------------------------------------|


Wer etwas von mir sehen will..

oder

..zur Zeit ist da nichts besonderes, aber es kommt mit der Zeit.
            
Tabs too difficult? Try these video lessons and learn fast.


comments powered by Disqus
↑ Back to top | Tablatures and chords are parodies/interpretations of the original songs. You may use it for private study, scholarship, research or language learning purposes only