» » »

Heavens Drive Tabs (ver.2)

Artists:  A B C D E F G H I J K L M N O P Q R S T U V W X Y Z # 

Heavens Drive Tabs (ver.2)

L Arc En Ciel
Rating:
0/5 (0 votes)

Tabs too difficult? Try these video lessons and learn fast.
                add me to yahoo messenger if you want some
larc tabs

------------------|------------------|------------------|--------------20/--|
------------------|------------------|------------------|-------------------|
------------------|------------------|------------------|-------------------|
------------------|------------------|------------------|-------------------|
------------------|------------------|------------------|-------------------|
------------------|------------------|------------------|-------------------|

--11------------12----|--14----------15------|--15------15------------|
----------------------|----------------------|----------------14------|
----------------------|----------------------|------------------------|
----------------------|----------------------|------------------------|
----------------------|----------------------|------------------------|
----------------------|----------------------|------------------------|

-----------------------------------|----------------------------|
-----------------------------------|----------------------19----|
--14/-12--------12--12----12h14h12-|--11------------16----------|
------------14---------------------|------------16-----16-------|
-----------------------------------|----------------------------|
-----------------------------------|----------------------------|

------------------------------------------|--------------------|
--17h16-----16----------------------------|--------------------|
--------18--------16--16--18----16----18--|--19----------------|
------------------------------------------|--------------------|
------------------------------------------|--------------------|
------------------------------------------|--------------------|

--17h21h17-15h19h15-14h15h14--------------------------------10-|
-----------------------------17----15h17h15h14----14-15/-10----|
--------------------------------16-------------16--------------|

-------10----------10-10-10-----10-10-10-10-|
----------13-10----10-10-10-----10-10-10-10-|
--12------------12----------12--------------|
--------------------------------------------|
--------------------------------------------|
--------------------------------------------|

----------------------------------------|
--------------------------------0-------|
--12--12-10-10-10-12--10-10-10----------|
-------------------------12-12----------|
-----------------------------------7/10-|
----------------------------------------|

----------------------10-10-10-------------|
----------------------10-10-10-12--10--12--|
-------------------10----------12----------|
-----8-------10h12-----------------10--12--|
--10---10/12-------------------------------|
-------------------------------------------|

--13-13----12-12-12---------------13--|
--------10----------10----15--15------|
--------------------10----------------|
--------------------------------------|
--------------------------------------|
--------------------------------------|

--17h13-13-16h13-13-15h13----13---------------|
--------------------------17----15----15------|
------------------------------------------14--|
----------------------------------------------|
----------------------------------------------|
----------------------------------------------|

------------------17------16-------------7h|
--15------15----------------------18-------|
------14------14------14------14-----------|
-------------------------------------------|
-------------------------------------------|
-------------------------------------------|

--20h17h19h17----17---------------------------------|
--------------20----18h20h18-17h18-17h18h17----17---|
--------------------------------------------19------|
----------------------------------------------------|
----------------------------------------------------|
----------------------------------------------------|

--------------------------19----18----|--18/---------------|----------------|
--------------------------------------|--------------------|----------------|
--------------16----------------------|--------------------|----------------|
--------12----------------------------|--------------------|----------------|
--13----------------15----------------|--------------------|----------------|
--------------------------------------|--------------------|----------------|
            
Tabs too difficult? Try these video lessons and learn fast.




comments powered by Disqus
↑ Back to top | Tablatures and chords are parodies/interpretations of the original songs. You may use it for private study, scholarship, research or language learning purposes only