» » »

Meet Me By The Getaway Car Tabs (ver.2)

Artists:  A B C D E F G H I J K L M N O P Q R S T U V W X Y Z # 

Meet Me By The Getaway Car Tabs (ver.2)

Larrikin Love
Rating:
0/5 (0 votes)

Tabs too difficult? Try these video lessons and learn fast.
                Meet Me by the Getaway Car
Larrikin Love (whose only gone on ruddy disbanded)

2:06
E--------------------------------------------------------|
B-8s12---10s12s10---------------12-13-15-17v--15b17------|
G-------------------------------------------------16-----|
D--------------------------------------------------------|
A-------------------(pm)9h12-----------------------------|
E--------------------------------------------------------|

e--------------------------------------------------------|
B--15-15v-13v-12-10-8------------------------------------|
G--------------------------------------------------------|
D--------------------------------------------------------|
A--------------------------------------------------------|
E--------------------------------------------------------|

e--------------------------------------------------------|
B------------------------------15b-r15-15-13-------------|
G--------------------------------------------------------|
D-------------10h12 14h17h14-----------------------------|
A-------5h7----------------------------------------------|
E--3h5---------------------------------------------------|

e--------------------------------------------------------|
B--15-13-12-13-12--12------------------------------------|
G----------------14--14-12-14----------------------------|
D--------------------------------------------------------|
A--------------------------------------------------------|
E--------------------------------------------------------|

e--------------------------------------------------------|
B--------------------------------------------------------|
G-b14-r14v-14h12----12-----b14-r14-14p12----12-----------|
D----------------14----------------------14----x---------|
A--------------------------------------------------------|
E--------------------------------------------------------|

e--------------------------------------------------------|
B--------------------------------------------------------|
G--12-12-12--14--14--14--12-12-12--14--------------------|
D--12-12-12--12--12--12--12-12-12--12--------------------|
A--------------------------------------------------------|
E--------------------------------------------------------|

e-----5--------------------------5-----------------------|
B--------------------------------------------------------|
G--7b---r7-5---7-5---5-5-7----7b---7r-5---7-5---5-5-7b-5-|
D------------7-----5--------------------7-----5----------|
A--------------------------------------------------------|
E--------------------------------------------------------|

e-------------------------------------------------------------|
B-----------------------------------s8--s8--s8--s8------------|
G------------------b7r7-5h7-5---5---s9--s9--s9--s9------------|
D-----------------------------7-------------------------------|
A--5h6p5-3-5-3---3--------------------------------------------|
E--------------5----------------------------------------------|
            
Tabs too difficult? Try these video lessons and learn fast.




comments powered by Disqus
↑ Back to top | Tablatures and chords are parodies/interpretations of the original songs. You may use it for private study, scholarship, research or language learning purposes only