» » »

Hej Tata Tabs (ver.1)

Artists:  A B C D E F G H I J K L M N O P Q R S T U V W X Y Z # 

Hej Tata Tabs (ver.1)

Laufer
Rating:
0/5 (0 votes)

Tabs too difficult? Try these video lessons and learn fast.
                -------------------------------------------------------------------------------
-------------------------------------------------------------------------------



INTRO/CHORUS:
e-----------------------------------------------------------------|
B-----------------------------------------------------------------|
G-----------------------6-6-6-6----2-2-------------4-4-4--3-2-----|
D---4-4-----------------6-6-6-6----2-2-------------4-4-4------2---|
A---4-4------0--2p0-----4-4-4-4----0-0------0------2-2-2----------|
E---2-2--0h2--------0-------------------0h2-----------------------|

VERSE & PRE CHORUS:
The same as intro/chorus but without the fills


PLAY INTRO 2x

VERSE 1:
U podrumu je cuvao
Njega djecaka
Batinom ga ljubio,
A otrovom ga lijecio

PRE CHORUS:
Debeli mu zidovi
Od oka sunce sakrili,
A prozore je sanjao
Noktima ih crtao

CHORUS:
I kaze
Hej tata, oprosti mi
Sto izgledam kao pas
Hej tata, zelis li
Da sjednem na tvoj znak?

VERSE 2:
W/Wah wah
U podrumu je cuvao
Izgubljeno sjeme
Jezik mu zazidao
Zaustavio vrijeme


PRE CHORUS


CHORUS


SOLO:
W/Wah wah
e----------------------------------------------------------------------|
B----------------------------------------------------------------------|
G----------------------------------------------------------------------|
D---4-/2-/4-----/6-/7-/6-/7-----/7-/9-----/11-/9-/7------/7-/4-/2-/4---|
A----------------------------------------------------------------------|
E----------------------------------------------------------------------|

e-------------------------------------------------------------|
B-------------------------------------------------------------|
G-------------------------------------------------------------|
D---/2--/6-/7-/6-/7-----/7-/9-----11/-/9-/7-----/7-/4-/2-/4---|
A-------------------------------------------------------------|
E-------------------------------------------------------------|


OUTRO CHORUS:
Hej tata, oprosti mi
Sto izgledam kao pas
Hej tata, zelis li
Da sjednem na tvoj znak?

Hej tata, oprosti mi
Sto izgledam kao pas
Hej tata
Hej tata
Hej tata
Heeeeej
            
Tabs too difficult? Try these video lessons and learn fast.




comments powered by Disqus
↑ Back to top | Tablatures and chords are parodies/interpretations of the original songs. You may use it for private study, scholarship, research or language learning purposes only