» » »

Raw And Searing Flesh Bass tabs (ver.2)

Artists:  A B C D E F G H I J K L M N O P Q R S T U V W X Y Z # 

Raw And Searing Flesh Bass tabs (ver.2)

Lawrence Arms
Rating:
0/5 (0 votes)
Tabs too difficult? Try these video lessons and learn fast.
                The Lawrence Arms - The raw and searing Flesh

Here´s another Version of that great song.
I saw Brendan live and he plays it like this :

G|----------------------------------------------------------|
D|-----4-4-------------4-4---------*--7-------------*-*-----|
A|-7-5--5-5-3-2-0----5--5-5-3------7-5--3-2-0-----*-5-3-#-#-|
E|-----------------0----------3-2--------------12\0-----3-2-|

G|-----77-------77-------77554202-0242-0242-|
D|---55--55---55--55---55-------------------|
A|-77-------33-------77---------------------|
E|------------------------------------------|

G|-----------------------------------------------------------|
D|-*-*-*-#-#------*-*-------5--5--5--5-----7--7---5--5--5--5-|
A|-7-5-3-2-0-7\-*-5-3-#-#--3-33-33-33--#-55-55--33-33-33-33--|
E|--------------0-----3-2--------------3---------------------|

G|-------9----9---------------------------5544220022442200-----------5544220022442200-|
D|---#--9-9--9-9---#-#----------#-55442200-----------------#-55442200-----------------|
A|-#-5-7----7----#-5-3-55332200-7--------------------------7--------------------------|
E|-3-------------3--------------------------------------------------------------------|

G|------------------------------------------------------------------------------|
D|-----4-4-------------*-*--------------5-#---#-557755-#-#-#--5------#-#-#-7575-|
A|-7-5--5-5-3-2-0-7\-*-5-3-#-#--*-333333--3-*-3--------7-5-3-3-3-555-7-5-3------|
E|-------------------0-----3-2--0-----------0-----------------------------------|

G|---------------------------------------------------|
D|---54200-*---5420020-*---5420020-#-5-#---5420020-*-|
A|-77------3-77--------3-77--------3---3-77--------3-|
E|---------------------------------------------------|

G|-----------0202424-----------0202454----7---4---|
D|---5420020-----------5420020-----------5---7----|
A|-77-------3--------77-------3---------7---5---3-|
E|------------------------------------------------|
            
Tabs too difficult? Try these video lessons and learn fast.


comments powered by Disqus
↑ Back to top | Tablatures and chords are parodies/interpretations of the original songs. You may use it for private study, scholarship, research or language learning purposes only