» » »

The Slowest Drink At The Saddest Bar On The Snowiest Day In The Greatest City Chords (ver.1)

Artists:  A B C D E F G H I J K L M N O P Q R S T U V W X Y Z # 

The Slowest Drink At The Saddest Bar On The Snowiest Day In The Greatest City Chords (ver.1)

Lawrence Arms
Rating:
5/5 (2 votes)

Tabs too difficult? Try these video lessons and learn fast.
                -------------------------------------------------------------------------------
 The Slowest Drink At The Saddest Bar On The Snowiest Day In The Greatest City
-------------------------------------------------------------------------------




    C#5  B5  A5  C#5  E5 C#m  B   A   
e|------------------------4---2---5---|
B|------------------------5---4---5---|
G|---6---4---2----6-------6---4---6---|
D|---6---4---2----6---2---6---4---7---|
A|---4---2---0----4---2---4---2---7---|
E|--------------------0-----------5---|


C#5                   A5
My eyes opened to the emptiness.
E5                      B5
My face was nothing but crooked lines.
C#5           B5           A5
I guess somewhere I really fell behind.
C#5                           A5
My feet were cold against the bathroom tile.
E5                    B5 
Took a shower just to pass the time.
C#5         B5                A5
My mind was full, too much to figure out.


   C#5   B5   A5
guitar 2:
e|--/4----7---------|
B|------------7\5---|


                 C#5       B5                A5
Walk through the snow to a bar where there's no one I know.
       C#5        B5        A5
Drink slow, drink slow with nowhere to go.

And when I leave I'll be singing this song.        Summer's
e|---------------4-----------7----------4-------------------|
B|--------/5----------5--4-------4----2---2--4h5p0-2--0-----|

          gone, carry on, I'm a ghost in the dawn.
e|---------------4---------7----------4---------------------|
B|--------/5-------5--4-------4---2------4/5~---------------|


E5    B5          A5
I was lost on the airplanes.
E5    B5          A5
I was high on the fast trains.
   C#5          B5       A5
My heart was a bird in a small cage.
E5         B5          C#5   A5 
And I was drunk on the radio waves.
       E5           B5           C#5   A5
I was drunk, I was drunk on the radio waves.


    C#5                       A5              E5  B5       C#5
guitar 2:             
e|---/9---7-4h5p4---7-5-4---------4-2-4-5-7-2-0-2-2h4p2--------|
B|------9-----------------7---5-7----------------------5-0-2---|
G|-------------------------------------------------------------|

                         A5
Too much coffee I’m not steady now.
E5                        B5
Quiet apartment, ears are ringing loud.
C#5        B5                 A5
The winter drowns out all the city sounds.
C#5                     A5
Hang my towel over the shower rod. 
E5                 B5
So many hours just hanging on.
C#5      B5          A5
So many chances have come and gone.


   C#5   B5   A5
guitar 2:
e|--/4----7---/9-----|
B|-------------------|


                 C#5       B5                A5
Walk through the snow to a bar where there's no one I know.
       C#5        B5        A5
Drink slow, drink slow with nowhere to go.

And when I leave I'll be singing this song.        Summer's
e|---------------4-----------7----------4-------------------|
B|--------/5----------5--4-------4----2---2--4h5p0-2--0-----|

          gone, carry on, I'm a ghost in the dawn.
e|---------------4---------7----------4---------------------|
B|--------/5-------5--4-------4---2------4/5~---------------|


E5    B5          A5
I was lost on the airplanes.
E5    B5          A5
I was high on the fast trains.
   C#5          B5       A5
My heart was a bird in a small cage.
E5         B5          C#5   A5 
And I was drunk on the radio waves.
       E5           B5           C#5   A5
I was drunk, I was drunk on the radio waves.


C#5          A5             E5            B5
And all this time passed me by and I was trapped here waiting.
C#5            A5              E5             B5
Sometimes the truth is hard to find and I was scared of changing.
C#5  B5      A5       C#5   B5      A5
What will it say on my snow-covered grave?
E5         B5             C#5      B5   A5
"He had it all, he let it all just slip away."


                 C#m       B                 A 
Walk through the snow to a bar where there's no one I know.
       C#m        B         A 
Drink slow, drink slow with nowhere to go.
           C#m           B            A 
And when I leave I'll be singing this song.        
         C#m         B         A 
Summer's gone, carry on, I'm a ghost in the dawn.


E5    B5          A5
I was lost on the airplanes.
E5    B5          A5
I was high on the fast trains.
   C#5          B5       A5
My heart was a bird in a small cage.
E5         B5          C#5   A5 
And I was drunk on the radio waves.
       E5          B5           C#5   A5
I was drunk, I was drunk on the radio waves.


| /  slide up
| \  slide down
| h  hammer-on
| p  pull-off
| ~  vibrato
===============================================================================
            
Tabs too difficult? Try these video lessons and learn fast.




comments powered by Disqus
↑ Back to top | Tablatures and chords are parodies/interpretations of the original songs. You may use it for private study, scholarship, research or language learning purposes only