>
 >
I Cant Quit You Babe Live

I Cant Quit You Babe Live Bass Tabs

Led Zeppelin - I Cant Quit You Babe Live chords, tabs, tablatures, lyrics

Guitar lessons | Add/correct | Request | Top 50 tabs Artists:  A B C D E F G H I J K L M N O P Q R S T U V W X Y Z 0-9

I Cant Quit You Babe Live Bass Tabs – Led Zeppelin

CD, Sheet music, Poster

Do you like I Cant Quit You Babe Live? Share with your friends now
Bass Tabs
standard tuning
that little intro after were gonna groove
g---------------------------------------2-----------------------------------|
d---------------------------1--1--4--4----2--4------------------------------|
a--------------0---1--2--2-------------------------------1-x-1--4--4--x-----|
e--2--0-2-2--2--2----------------------------------2-x-2--------------------|

g------------------------------------------------------------2--3--4--------|
d--2--3--4---------2------------2-3-4------------1--1---4-(4)---------------|
a--------------------4--1-----------------2--2------------------------------|
e-----------2--0-----------2--2---------------------------------------------|

g--------------------2---4--------------------------------------------------|
d--------1--1---4--4---4---4-x-2-3-4----------------------------------------|
a--2--2---------------------------------------------------------------------|
e-------------------------------------2------3-----4-----5/-----------------|
i cant quit you babe
g-----------------------5---------------------------------------------------|
d--------4--4----7--7-----5---7-----------------------5-6-7-----------------|
a--5--5---------------------------------4--4---7--7-------------------------|
e--------------------------------5--5---------------------------------------|

g----------------------------------------------------5-6-7------------------|
d-----------------------5--7----------4--4---7--7---------------------------|
a--0--0---4--4---7--7-------------5--5--------------------------------------|
e---------------------------------------------------------------------------|

g---------------------5---75------------------------------------------------|
d--------4--4---7--7----7---7-x-5-6-7--------------------5--6--7------------|
a--5--5---------------------------------0---4--4----7--7--------------------|
e---------------------------------------------------------------------------|

g-----------------------------------------------7---9------7----------------|
d----------------------5--6--7--------6--6---9----9---9--9--7---------------|
a--0--0--4--4----7--7-----------7--7--------------------7-------------------|
e---------------------------------------------------------------------------|

g---------------------------------------------------------------------------|
d-------4--5--6--7----2--2--3--4--6--7--------------------------------------|
a--5--5------------------------------------------0-----1--------------------|
e-------------------0-------------------------------------------------------|

g---------------------------------------------------------------------------|
d--------------------------------------------5--6--7------------------------|
a--0-----1------------0---0---4--5--6--7--7---------------------------------|
e---------------------------------------------------------------------------|

g---------------5--7--------------------------------------------------------|
d--------4----7------7------5--------------------5----------------5--7------|
a--5--5----------------5-7----7--------4-5-6-7-7-------------4-7------------|
e---------------------------------5--5-------------7b---5-5-----------------|

g-------------------------5--7----------8---7-------------------------------|
d------------------4----7------7------8---8---7----------------5---7--------|
a--0-3-0-4---5--5----------------5--6-----------5-0-5---6--7----------------|
e---------------------------------------------------------------------------|

g----------------------------------------------------5--5-------------------|
d----------------------5--6--7------------------5---------7---5--6--7-------|
a--------4--4----7--7-----------------4--4---7----7---------7---------------|
e--5--5-------------------------5--5----------------------------------------|

g---------9-----------------------------------------------------------------|
d-----------9--6--------------4-5-6-7--4-----5-4-2--------------------------|
a--7--7----------7---6---5--5------------5-5-------3------------------------|
e---------------------------------------------------------------------------|

g----------------3---2/10s--------------------------------------------------|
d------------x-3---3---------------------------7--5/7----5----4-------------|
a--0----1-------------------0----1-------4--7-----------------------7-4h5---|
e---------------------------------------------------------------------------|

g----------------------------------------------------------------------------|
d-------------------------------------7--5-(5)---7--7-5----------------------|
a--5--3b-2-1----0--0---4--4--5--6--7-----------7--------7-----3-3-4-4-0-0-44-|
e---------------------------------------------------------5-5----------------|

g-----------------5----7--5-----------------5-5----7-5----------------------|
d-------4--5--7------7------4-------4--5--7-----7-----------4-4-5-5-6-7-----|
a--5--5------------------------5--5--------------------5-5------------------|
e---------------------------------------------------------------------------|

g---------------------------------------------------------------------------|
d------------------------------------------5--7-------7-----7---------------|
a----4--5--6--7---------3------------4--7-----------7-----5------6----------|
e--5--------------0-3-5----5---5--5--------------5------5------5------------|

g--------6-------------------------4--------4--2----------------------------|
d------------9--6---------------------7--4--------4---2----------/15--------|
a--7--7------------7----6----5--5-------------------------3---1-------------|
e---------------------------------------------------------------------------|

g-----------------3---2(2)/9s-------------------------------------------------|
d------------x--3---3---------------------------------------------------------|
a--0----1---------------------0-----1p0---------------------------------------|
e-----------------------------------------------------------------------------|
guitar break
g---------------------------------------------------------------------------|
d---------------------------------------------------------------------------|
a---------------------------------------------------------------------------|
e---------------------------------------------------------------------------|

g------------------------------5-------------------------5---7--------------|
d--------------------5---7-7--------------------4-5-6-7----7-----4-5-6-7----|
a--0-0-0-0-0-0-0-0-0---7-----7---x-3-4-5---5--5----------------5------------|
e---------------------------------------------------------------------------|

g------------------------5-5-7-----------------------------------------5----|
d---------------4--5--7--------5-5-7---------------------------5-7--5-------|
a--0--3-4--5--5----------------------------4-5-6-7---------4-7--------------|
e------------------------------------5---5---------3-4-5-5------------------|

g---------------------------------------------------------------------------|
d--10---10------------------------------------------------------------------|
a-----7----7--3--5--7--7--7--2-4-5-5-5-5--0-2-3-3-3-------------------------|
e---------------------------------------------------2-3--4-5----------------|

g----------------3---2/11---------------------------------------------------|
d------------0-3---3--------------------------------------------------------|
a--0----1------------------0----1-------------------------------------------|
e---------------------------------------------------------------------------|
mr. jimmy page lead guitar
g---------------------------------------------------------------------------|
d------------------------------------4-5-7--------4-5--7--------------------|
a--0--0--4-5-7--0-0--4-5-7------5--5----------5-5---------------------------|
e---------------------------------------------------------------------------|

g---------------------------------------------------------------------------|
d-----------------------------------------7--------------4-5--7-----4-5--7--|
a-0-0--4-5--7---0-0--4-5--7--0-0--4-5-7------x-2-3-4-5-5--------5-5---------|
e---------------------------------------------------------------------------|

g-------------5---5-7-------------------------------------------------------|
d------4-5--7---7-----5-6-7-----------------------------5-7-----7-----------|
a--5-5----------------------0-4-5-6-7-7-------------4-7-----x-4---5---------|
e---------------------------------------7b-6-5--5-5-------------------------|

g-------9-7-----------------------------------------------------------------|
d-----------9----9----9---9-----------7---7---------------------------------|
a--7-7---------7---7----7---x-7-6--5----5---0-5-3-0-3-4-5-------------------|
e---------------------------------------------------------3-4-5-------------|
                                                 let ring
g----------------------------------------------------------------------------|
d----------------------------------------------------------------------------|
a--0-----1-----------0-----1------------0---------1--------------------------|
e----------------------------------------------------------------------------|

drum outro
g---------------------------------------------------------------------------|
d---------------------------------------------------------------------------|
a---------------------------------------------------------------------------|
e---------------------------------------------------------------------------|


g---------------------------------------------------------------------------|
d---------------------------------------------------------------------------|
a---------------------------------------------------------------------------|
e---------------------------------------------------------------------------|
outro
g---------------------------------------------------------------------------|
d---------------------------------------------------------------------------|
a--0--0-0--0-0--0-0-0-0-0--0-0---0---0-00-0--0--0---------------------------|
e---------------------------------------------------------------------------|

g---------------------------------------------------------------------------|
d---------------------------------------------------------------------------|
a--0h1h2-3-3b--0------------------------------------------------------------|
e---------------------------------------------------------------------------|

this was from royal albert hall uncut  and if you liked it and you want more bass tabs





Comments


Popular Led Zeppelin tabs & chords
Bron Y Aur Stomp 2 Bass Tabs
Tea For One 2 Bass Tabs
Heartbreaker Chords
Bron Yr Aur 1 Tabs
In The Light Tabs
Poor Tom Tabs
Sick Again Tabs
Stairway To Heaven 4 Tabs
Tangerine 7 Tabs
Tangerine Live Tabs


Song lyrics



↑ Back to top | Tablatures and chords are parodies/interpretations of the original songs. You may use it for private study, scholarship, research or language learning purposes only
© 2014 AZChords.com Contact us | Privacy policy | DMCA | Add/correct tabs | Request tabs | Top 50 tabs