» » »

Kashmir Tabs (ver.7)

Artists:  A B C D E F G H I J K L M N O P Q R S T U V W X Y Z # 

Kashmir Tabs (ver.7)

Led Zeppelin
Rating:
0/5 (0 votes)

Tabs too difficult? Try these video lessons and learn fast.
                A/N: I've double checked for any errors and found none. If you happen to notice any,


Intro Riff
||-----------------------------------|-----------------------------------|
||-----------------------------------|-----------------------------------|
||--2-2-2-------2-2-2-------3-3-3----|------3-3-3-------4-4-4-------4-4--|
||--0-0-0-------0-0-0-------0-0-0----|------0-0-0-------0-0-0-------0-0--|
||--5-5-5-------5-5-5-------5-5-5----|------5-5-5-------5-5-5-------5-5--|
||----------------------0------------|--------------0--------------------|
 
|------------------------------------------||
|------------------------------------------||
|--4-------5-5-5-------5-5-5-------7-7-7---||
|--0-------0-0-0-------0-0-0-------7-7-7---||
|--5-------5-5-5-------5-5-5-------0-0-0---||
|------0-----------------------0-----------||
 
Verse I rhythm 
||--------------------------|-----------------------------------|
||--------------------------|-----------------------------------|
||--2-2-2-------3-3-3-------|------3-3-3-------4-4-4-------4-4--|
||--0-0-0-------0-0-0-------|------0-0-0-------0-0-0-------0-0--|
||--5-5-5-------5-5-5-------|------5-5-5-------5-5-5-------5-5--|
||----------0---------------|--------------0--------------------|
 
|------------------------------------------||
|------------------------------------------||
|--4-------5-5-5-------5-5-5-------7-7-7---||
|--0-------0-0-0-------0-0-0-------7-7-7---||
|--5-------5-5-5-------5-5-5-------0-0-0---||
|------0-----------------------0-----------||






After Intro, repeat throughout the verse

Verse I(lyrics)
Oh let the sun beat down upon my face, stars to fill my dream 
I am a traveler of both time and space, to be where I have been 
To sit with elders of the gentle race, this world has seldom seen 
They talk of days for which they sit and wait and all will be revealed


Then do this:

||--12----12----10----10-----7---7----|--5-----5-----3-----3-------------------||
||---0-----0-----0-----0-----0---0----|--0-----0-----0-----0-------------------||
||--12----11----10-----9-----7---6----|--5-----4-----3-----2-------------------|| (x2) 
||---0-----0-----0-----0-----0---0----|--0-----0-----0-----0-----3-2-0---------||
||------------------------------------|----------------------------------------||
||------------------------------------|----------------------------------------||
 




After which, you will do the same rhythm pattern as the Intro/Verse only it begins from:

||-----------------------------------|-----------------------------------------||
||-----------------------------------|-----------------------------------------||
||------3-3-3-------4-4-4-------4-4--|--4-------5-5-5-------5-5-5-------7-7-7--||
||------0-0-0-------0-0-0-------0-0--|--0-------0-0-0-------0-0-0-------0-0-0--||
||------5-5-5-------5-5-5-------5-5--|--5-------5-5-5-------5-5-5-------5-5-5--||
||--------------0--------------------|------0-----------------------0----------||


Then resume with next verse

Verse II rhythm 
||--------------------------|-----------------------------------|
||--------------------------|-----------------------------------|
||--2-2-2-------3-3-3-------|------3-3-3-------4-4-4-------4-4--|
||--0-0-0-------0-0-0-------|------0-0-0-------0-0-0-------0-0--|
||--5-5-5-------5-5-5-------|------5-5-5-------5-5-5-------5-5--|
||----------0---------------|--------------0--------------------|
 
|------------------------------------------||
|------------------------------------------||
|--4-------5-5-5-------5-5-5-------7-7-7---||
|--0-------0-0-0-------0-0-0-------7-7-7---||
|--5-------5-5-5-------5-5-5-------0-0-0---||
|------0-----------------------0-----------||



Verse II(lyrics)
Talk and song from tongues of lilting grace, whose sounds caress my ear 
But not a word I heard could I relate, the story was quite clear 
Oh, oh. 



You can also exchange:

|------------------|
|------------------|
|----7-7-7---------|  
|----0-0-0---------|
|----5-5-5---------|
|------------------|

With:

|----—---------------------------------------|
|--------------------------------------------|
|--------------------------------------------| 
|--------------------------------------------|
|---12--12--12---14—-12--11--12---9----------|
|--------------------------------------------|




Then do this again
||--12----12----10----10-----7---7----|--5-----5-----3-----3-------------------||
||---0-----0-----0-----0-----0---0----|--0-----0-----0-----0-------------------||
||--12----11----10-----9-----7---6----|--5-----4-----3-----2-------------------|| (x2) 
||---0-----0-----0-----0-----0---0----|--0-----0-----0-----0-----3-2-0---------||
||------------------------------------|----------------------------------------||
||------------------------------------|----------------------------------------||


||-----------------------------------|-----------------------------------------||
||-----------------------------------|-----------------------------------------||
||------3-3-3-------4-4-4-------4-4--|--4-------5-5-5-------5-5-5--------------||
||------0-0-0-------0-0-0-------0-0--|--0-------0-0-0-------0-0-0--------------||
||------5-5-5-------5-5-5-------5-5--|--5-------5-5-5-------5-5-5--------------||
||--------------0--------------------|------0----------------------------------||




||--12----12----10----10-----7---7----|--5-----5-----3-----3--------------||
||---0-----0-----0-----0-----0---0----|--0-----0-----0-----0--------------||
||--12----11----10-----9-----7---6----|--5-----4-----3-----2--------------||
||---0-----0-----0-----0-----0---0----|--0-----0-----0-----0-----3-2-0----||
||------------------------------------|-----------------------------------||
||------------------------------------|-----------------------------------||



||--12----12----10----10-----7---7----|--5-----5-----3-----3--------------------||
||---0-----0-----0-----0-----0---0----|--0-----0-----0-----0--------------------||
||--12----11----10-----9-----7---6----|--5-----4-----3-----2--------------------||
||---0-----0-----0-----0-----0---0----|--0-----0-----0-----0-----3-2-0-----0-2--||
||------------------------------------|--------------------------------3--------||
||------------------------------------|-----------------------------------------||
 
Interlude :

||--------------------|-----------------|
||--------------------|-----------------|
||--------------------|-----------------|
||---2-----2---2--11--|-(11)\2----------|
||---0-----0---0--12--|-(12)\0----------|
||--------------------|-----------------|
 

|-------------------|-------------------------------||
|-------------------|-------------------------------||
|-------------------|-------------------------------||
|--2-----2---2--11--|-(11)\2---------3-2-0-----0-2--||
|--0-----0---0--12--|-(12)\0---------------3--------||
|-------------------|-------------------------------||


Oh, I been flying... mama, there ain't no denyin' 
I've been flying, ain't no denyin', no denyin'


Interlude II (alternated chords)


||---5-=-=-=-5-=-=-5-5-5-5-=-=-=-5-=--|--=-=-5-=-=-=-5-=-=-=-=-=-5-5-5-=--|
||---5-=-=-=-5-=-=-5-5-5-5-=-=-=-5-=--|--=-=-5-=-=-=-5-=-=-=-=-=-5-5-5-=--|
||---7-=-=-=-7-=-=-7-7-7-7-=-=-=-7-=--|--=-=-7-=-=-=-7-=-=-=-=-=-7-7-7-=--|
||---5-=-=-=-5-=-=-5-5-5-5-=-=-=-5-=--|--=-=-5-=-=-=-5-=-=-=-=-=-5-5-5-=--|
||---5-=-=-=-5-=-=-5-5-5-5-=-=-=-5-=--|--=-=-5-=-=-=-5-=-=-=-=-=-5-5-5-=--|
||---5-=-=-=-5-=-=-5-5-5-5-=-=-=-5-=--|--=-=-5-=-=-=-5-=-=-=-=-=-5-5-5-=--|
 
|--7-=-=-=-7-=-=-7-7-7-7-=-=-=-7-=--|--=-=-7-=-7-=-=-7-7-=-=-=-7-=-7-7---||
|--7-=-=-=-7-=-=-7-7-7-7-=-=-=-7-=--|--=-=-7-=-7-=-=-7-7-=-=-=-7-=-7-7---||
|--9-=-=-=-9-=-=-9-9-9-9-=-=-=-9-=--|--=-=-9-=-9-=-=-9-9-=-=-=-9-=-9-9---||
|--7-=-=-=-7-=-=-7-7-7-7-=-=-=-7-=--|--=-=-7-=-7-=-=-7-7-=-=-=-7-=-7-7---||
|--7-=-=-=-7-=-=-7-7-7-7-=-=-=-7-=--|--=-=-7-=-7-=-=-7-7-=-=-=-7-=-7-7---||
|--7-=-=-=-7-=-=-7-7-7-7-=-=-=-7-=--|--=-=-7-=-7-=-=-7-7-=-=-=-7-=-7-7---||


All I see turns to brown, as the sun burns the ground 
And my eyes fill with sand, as I scan this wasted land 
Trying to find, trying to find where I've been. 


Main/Intro Riff Repeated here
||-----------------------------------|-----------------------------------|
||-----------------------------------|-----------------------------------|
||--2-2-2-------2-2-2-------3-3-3----|------3-3-3-------4-4-4-------4-4--|
||--0-0-0-------0-0-0-------0-0-0----|------0-0-0-------0-0-0-------0-0--|
||--5-5-5-------5-5-5-------5-5-5----|------5-5-5-------5-5-5-------5-5--|
||----------------------0------------|--------------0--------------------|
 
|------------------------------------------||
|------------------------------------------||
|--4-------5-5-5-------5-5-5-------7-7-7---||
|--0-------0-0-0-------0-0-0-------7-7-7---||
|--5-------5-5-5-------5-5-5-------0-0-0---||
|------0-----------------------0-----------||



Verse III rhythm
||--------------------------|-----------------------------------|
||--------------------------|-----------------------------------|
||--2-2-2-------3-3-3-------|------3-3-3-------4-4-4-------4-4--|
||--0-0-0-------0-0-0-------|------0-0-0-------0-0-0-------0-0--|
||--5-5-5-------5-5-5-------|------5-5-5-------5-5-5-------5-5--|
||----------0---------------|--------------0--------------------|
 
|------------------------------------------||
|------------------------------------------||
|--4-------5-5-5-------5-5-5-------7-7-7---||
|--0-------0-0-0-------0-0-0-------7-7-7---||
|--5-------5-5-5-------5-5-5-------0-0-0---||
|------0-----------------------0-----------||


Verse III(lyrics)
Oh, pilot of the storm who leaves no trace, like thoughts inside a dream 
Heed the path that led me to that place, yellow desert stream 
My Shangri-La beneath the summer moon, I will return again 
Sure as the dust that floats high in June, when movin' through Kashmir. 


||--12----12----10----10-----7---7----|--5-----5-----3-----3--------------||
||---0-----0-----0-----0-----0---0----|--0-----0-----0-----0--------------||
||--12----11----10-----9-----7---6----|--5-----4-----3-----2--------------|| (x2)
||---0-----0-----0-----0-----0---0----|--0-----0-----0-----0-----3-2-0----||
||------------------------------------|-----------------------------------||
||------------------------------------|-----------------------------------||


||-----------------------------------|-----------------------------------------||
||-----------------------------------|-----------------------------------------||
||------3-3-3-------4-4-4-------4-4--|--4-------5-5-5-------5-5-5-------7-7-7--||
||------0-0-0-------0-0-0-------0-0--|--0-------0-0-0-------0-0-0-------0-0-0--||
||------5-5-5-------5-5-5-------5-5--|--5-------5-5-5-------5-5-5-------5-5-5--||
||--------------0--------------------|------0-----------------------0----------||



Verse IV rhythm
||--------------------------|-----------------------------------|
||--------------------------|-----------------------------------|
||--2-2-2-------3-3-3-------|------3-3-3-------4-4-4-------4-4--|
||--0-0-0-------0-0-0-------|------0-0-0-------0-0-0-------0-0--|
||--5-5-5-------5-5-5-------|------5-5-5-------5-5-5-------5-5--|
||----------0---------------|--------------0--------------------|
 
|------------------------------------------||
|------------------------------------------||
|--4-------5-5-5-------5-5-5-------7-7-7---||
|--0-------0-0-0-------0-0-0-------7-7-7---||
|--5-------5-5-5-------5-5-5-------0-0-0---||
|------0-----------------------0-----------||
 

Verse IV(lyrics)
Oh, father of the four winds, fill my sails, across the sea of years 
With no provision but an open face, along the straits of fear 
Ohh. 



||--12----12----10----10-----7---7----|--5-----5-----3-----3--------------||
||---0-----0-----0-----0-----0---0----|--0-----0-----0-----0--------------||
||--12----11----10-----9-----7---6----|--5-----4-----3-----2--------------|| (x2)
||---0-----0-----0-----0-----0---0----|--0-----0-----0-----0-----3-2-0----||
||------------------------------------|-----------------------------------||
||------------------------------------|-----------------------------------||






||-----------------------------------|-----------------------------------------||
||-----------------------------------|-----------------------------------------||
||------3-3-3-------4-4-4-------4-4--|--4-------5-5-5-------5-5-5--------------||
||------0-0-0-------0-0-0-------0-0--|--0-------0-0-0-------0-0-0--------------||
||------5-5-5-------5-5-5-------5-5--|--5-------5-5-5-------5-5-5--------------||
||--------------0--------------------|------0----------------------------------||





||--12----12----10----10-----7---7----|--5-----5-----3-----3--------------||
||---0-----0-----0-----0-----0---0----|--0-----0-----0-----0--------------||
||--12----11----10-----9-----7---6----|--5-----4-----3-----2--------------|| (x2)
||---0-----0-----0-----0-----0---0----|--0-----0-----0-----0-----3-2-0----||
||------------------------------------|-----------------------------------||
||------------------------------------|-----------------------------------||






Interlude Verse:
When I'm on, when I'm on my way, yeah 
When I see, when I see the way, you stay-yeah 




I'm not sure if this is how Jimmy does this part of the song
But it's repeated again and again until it fades out
||------------------------------------|------------------------------------||
||------------------------------------|------------------------------------||
||------------------------------------|------------------------------------||
||----------------2-3---5--7--9--11---|--11b-9-11--------------------------||
||--------1-3--5----------------------|------------------------------------||
||--3--5------------------------------|------------------------------------||

Ooh, yeah-yeah, ooh, yeah-yeah, when I'm down... 
Ooh, yeah-yeah, ooh, yeah-yeah, well I'm down, so down 
Ooh, my baby, oooh, my baby, let me take you there 

Let me take you there. Let me take you there
            
Tabs too difficult? Try these video lessons and learn fast.


comments powered by Disqus
↑ Back to top | Tablatures and chords are parodies/interpretations of the original songs. You may use it for private study, scholarship, research or language learning purposes only