» » »

Davidian Tabs (ver.4)

Artists:  A B C D E F G H I J K L M N O P Q R S T U V W X Y Z # 

Davidian Tabs (ver.4)

Machine Head
Rating:
0/5 (0 votes)

Tabs too difficult? Try these video lessons and learn fast.
                (Intro)

Drop D Tuning

   V V     . . V V
-----------------------------
-----------------------------
-----------------------------
---5-----------5-------------
-----5--1--------5-----------
-0------1--0-0-----1-3-4-----

   V V     . . V V
-----------------------------
-----------------------------
---------------------------:-
---5-----------5-----------:-
-----5--1--------5-----------
-0------1--0-0-----1-4-3-----


. = Palm Mute
V = Pick Harmonic
            
Tabs too difficult? Try these video lessons and learn fast.




comments powered by Disqus
↑ Back to top | Tablatures and chords are parodies/interpretations of the original songs. You may use it for private study, scholarship, research or language learning purposes only