» » »

From This Day Bass tabs (ver.1)

Artists:  A B C D E F G H I J K L M N O P Q R S T U V W X Y Z # 

From This Day Bass tabs (ver.1)

Machine Head
Rating:
0/5 (0 votes)
Tabs too difficult? Try these video lessons and learn fast.
                Machine Head
The Burning Red

Tuning (standard 5 string) B, E, A, D, G


Intro part 1: x7

|-----------------|			 
|-----------------|			 
|-----------------| 
|-----------------| 	 
|--0--------------|
			 


Intro part 2: x8

|--------------------------|
|--------------------------|
|--------------------------| 
|--------------------.-----| 
|--0—-0-0—-0---0--0--0-----|


Intro part 3: x2

|---------------------------------------|----|----|
|---------------------------------------|----|----|
|---------------------------------------|----|----|
|---------------------------------------|----|----|
|--0—-0---0—-0-0—--0—-0-0—-0—3h6-6-6-6--|----|----|

|--------------------------------------------|
|--------------------------------------------|
|--------------------------------------------|
|--------------------------3-2-1-0—-3-2-1-0--|
|--0—-0---0—-0-0---0—-0-0--------------------|


Verse: X1

|---------------------|----|----|----|----|-----------------------|
|---------------------|----|----|----|----|-----------------------|
|---------------------|----|----|----|----|-----------------------|
|---------------------|----|----|----|----|-----------------------|
|--0---0—-0---12\/12--|----|----|----|----|--0---0—-0---12\--15\--|
 


chorus: x2

|------------------------------------------------------------------
|------------------------------------------------------------------
|------------------------------------------------------------------
|------------------------------------------------------------------
|--0—0--0-0-0—-0-0-0—-0-3h6-6-6-6—-3—3--3-3-3—-3-3-3—-3-3h6-6-6-6—-


|------------------------------------------------------------------|
|------------------------------------------------------------------|
|------------------------------------------------------------------|
|------------------------------------------------------------------|
|--8-8—-8-8-8—-8-8-8—-8-8-8-8--7-10-10-10-10-11-11-11-11-11--------|

 
Post Chorus: x1

|----------|
|----------|
|----------|
|----------|
|--0----0--|


Verse: x1

|---------------------|----|----|------------------------|
|---------------------|----|----|------------------------|
|---------------------|----|----|------------------------|
|---------------------|----|----|------------------------|
|--0---0—-0---12\/12--|----|----|--0---0—-0---12\---15\--|


Chorus: x2



Interlude: x2

|----------------------------------------------------------|
|----------------------------------------------------------|
|----------------------------------------------------------|
|----------------------------------------------------------|
|--0-1-3--0-2-3--0-1-3--0-2-3--0-1-3--0-2-3--0-6-0--6-3-2--|


: x1
|----------------------------------------------------------|
|----------------------------------------------------------|
|----------------------------------------------------------|
|----------------------------------------------------------|
|--x-1-3--0-2-3--0-1-3--0-2-3--0-1-3--0-2-3--0-6-0--6-3-2--|


Part 2: x1 

|-----------------------------------|      
|-----------------------------------|
|-----------------------------------| 
|-----------------------------------|
|--0~~~~~~0----0~~~~~~0-------------|

Part 3: (the build up) x64

|-----|
|-----|
|-----|
|--2--|
|-----|


 last chorus: x1

|-------------------------------------------------------------------
|-------------------------------------------------------------------
|------------------------------------------------------------------- 
|-------------------------------------------------------------------
|--0---------------------3h6-6-6-6—-3—3--3-3-3—-3-3-3—-3-3h6-6-6-6—-



|------------------------------------------------------------------|
|------------------------------------------------------------------|
|------------------------------------------------------------------|
|------------------------------------------------------------------|
|--8-8—-8-8-8—-8-8-8—-8—-8-8--7-10-10-10-10-11-11-11-11-11---------|


Chorus: x3


Ending: x1


|-------------------------------|
|-------------------------------|
|-------------------------------|
|-------------------------------|
|--x-x--0-6-0—-x-x-x-x-x—6-3-2--|

ThAnKyOu PlEaSe RaTe!#!
            
Tabs too difficult? Try these video lessons and learn fast.


comments powered by Disqus
↑ Back to top | Tablatures and chords are parodies/interpretations of the original songs. You may use it for private study, scholarship, research or language learning purposes only