» » »

Negative Creep - Nirvana Cover Tabs (ver.1)

Artists:  A B C D E F G H I J K L M N O P Q R S T U V W X Y Z # 

Negative Creep - Nirvana Cover Tabs (ver.1)

Machine Head
Rating:
0/5 (0 votes)

Tabs too difficult? Try these video lessons and learn fast.
                This song is really good and is a Nirvava cover. This song can only be heard as a b-side on the 'Take My Scars' single 
and on the new Roadrunner Records compilation album called 'The Heart Of Roadrunner Records' and is only £7.50 inc. p&p 
and rare songs from various artists.
Tuning: Drop D
D, A, D, G, B ,E

Key:
^ = natural harmonic
/ = slide up
\ = slide down

Intro -  use slight palm mute

E------------------------------------------------------------------------------
B------------------------------------------------------------------------------
G------------------------------------------------------------------------------
D------------------------------------------------------------------------------
A-0-0-0-7/12-0-0-0-0-12\7-0-0-0-0-7/12-0-0-0-0-12\7-0-0-0-0-7/12-0-0-0-0-12\7-0
D-0-0-0-7/12-0-0-0-0-12\7-0-0-0-0-7/12-0-0-0-0-12\7-0-0-0-0-7/12-0-0-0-0-12\7-0

Verse - use slight palm mute

E--------------------------------------------------------------------------------
B--------------------------------------------------------------------------------
G--------------------------------------------------------------------------------
D-0-0-0-7/12-0-0-0-0-12\7-0-0-0-0-7/12-0-0-0-0-12\7-0-0-0-0-7/12-0-0-0-0-12\7-0--
A-0-0-0-7/12-0-0-0-0-12\7-0-0-0-0-7/12-0-0-0-0-12\7-0-0-0-0-7/12-0-0-0-0-12\7-0--
D-0-0-0-7/12-0-0-0-0-12\7-0-0-0-0-7/12-0-0-0-0-12\7-0-0-0-0-7/12-0-0-0-0-12\7-0-9^

E-----------------------------------------------------------------------------------
B-----------------------------------------------------------------------------------
G-----------------------------------------------------------------------------------
D-0-0-0-7/12-0-0-0-0-12\7-0-0-0-0-7/12-0-0-0-0-12\7-0-0-0-0-7/12-0-0-0-0-12\7-0-----
A-0-0-0-7/12-0-0-0-0-12\7-0-0-0-0-7/12-0-0-0-0-12\7-0-0-0-0-7/12-0-0-0-0-12\7-0-9^9^
D-0-0-0-7/12-0-0-0-0-12\7-0-0-0-0-7/12-0-0-0-0-12\7-0-0-0-0-7/12-0-0-0-0-12\7-0-----

E--------------------------------------------------------------------------------
B--------------------------------------------------------------------------------
G--------------------------------------------------------------------------------
D-0-0-0-7/12-0-0-0-0-12\7-0-0-0-0-7/12-0-0-0-0-12\7-0-0-0-0-7/12-0-0-0-0-12\7-0--
A-0-0-0-7/12-0-0-0-0-12\7-0-0-0-0-7/12-0-0-0-0-12\7-0-0-0-0-7/12-0-0-0-0-12\7-0--
D-0-0-0-7/12-0-0-0-0-12\7-0-0-0-0-7/12-0-0-0-0-12\7-0-0-0-0-7/12-0-0-0-0-12\7-0-4^

Chorus - use distortion

E-----------------------------------
B-----------------------------------
G-----------------------------------
D-7-444---444-3-22--7-444---444-3-22
A-5-444---444-3-00--5-444---444-3-00
D---444---444---------444---444-----

Repeat as necessary

Structure:
Intro
Verse
Chorus
Verse
Chorus
Verse - NO PALM MUTE
Chorus
Intro - NO PALM MUTE


Well that;s it. PLEASE RATE!!!!
SLIPKNOT, STONE SOUR, MURDERDOLLS, MACHINE HEAD, FEAR FACTORY RULE!!
            
Tabs too difficult? Try these video lessons and learn fast.




comments powered by Disqus
↑ Back to top | Tablatures and chords are parodies/interpretations of the original songs. You may use it for private study, scholarship, research or language learning purposes only