» » »

Embarrassment Bass tabs (ver.1)

Artists:  A B C D E F G H I J K L M N O P Q R S T U V W X Y Z # 

Embarrassment Bass tabs (ver.1)

Madness
Rating:
0/5 (0 votes)

Tabs too difficult? Try these video lessons and learn fast.
                BAND: MADNESS

intro: 
-------|--------|-
-------|--------|-
-3-1---|--------|-
-------|-4-1----|-

verse:
--------|------|-----------|------|----------|------|-----------|-----------
--------|------|-5-5--5--5-|-5--5-|-8-8-8--8-|-8--8-|-10-10-----|-10-10-----
6-6-6-6-|-6--6-|-----------|------|----------|------|--------8-8|--------8-8
--------|------|-----------|------|----------|------|-----------|-----------

middle:
------------|-----------|------------|-----------|--------------|-
------------|-----------|------------|-----------|--------------|-
-4-4-4----4-|-4--4--4---|------------|-----------|--------------|-
--------4---|---------4-|-1--1--1--1-|-1-1--1--1-|-4--4--4--4-4-|-

-----------|----------|----------|-
-----------|----------|----------|-
-----------|-6--------|-6--------|-
-4-4--4--4-|----------|----------|-

instrumental:
--------------|---------|--------------|---------|-
--------------|---------|--------------|---------|-
-1--1--1--1-1-|-1--1--1-|--------------|---------|-
--------------|---------|-1--1--1--1-1-|-1--1--1-|-

finale:
---------|--------|------------|------------|-------------|-----------|-
---------|--------|------------|---------3--|-5--5--5---5-|-5--5--3---|-
---------|--------|-3--3--3--3-|-3--3--5----|-------------|---------5-|-
-1-------|-1------|------------|------------|-------------|-----------|-

finish:
------------|----------|-
------------|----------|-
-4--3-------|-1--------|-
------------|----3-----|-


intro: twice
verse: twice
middle:
instrumental: four times
intro: twice
verse: twice
middle:
finale: six times
finish:
            
Tabs too difficult? Try these video lessons and learn fast.




comments powered by Disqus
↑ Back to top | Tablatures and chords are parodies/interpretations of the original songs. You may use it for private study, scholarship, research or language learning purposes only