» » »

Sadie Hawkins Atom Bomb Tabs (ver.1)

Artists:  A B C D E F G H I J K L M N O P Q R S T U V W X Y Z # 

Sadie Hawkins Atom Bomb Tabs (ver.1)

Man Or Astro-man
Rating:
0/5 (0 votes)

Tabs too difficult? Try these video lessons and learn fast.
                Sadie hawkins atom bomb


-ring
e-17~~---|
b-17~~---|
g-17~~---|
-part 1
e-------------------------------------------------------------------------------|
b-------------------------------------------------------------------------------|
g--5-----2-----0----------------------------------------------------------------|
d-----2----1-----0--------------------------------------------------------------|
a-------------------6p5-6p5-3-5-3-----------------------------------------------|
E----------------------------------5--3-3-3-5-3---------------------------------|
-part 2
e-------------------------------------------------------------------------------|
b---2--2--2-----------------2-2-2-----------------------------------------------|
g---2--2--2-----------------2-2-2-----------------------------------------------|
d---2--2--2----------5-5-5--2-2-2-----------------------------------------------|
a------------5--5-5--3-3-3------------------------------------------------------|
E------------3--3-3-------------------------------------------------------------|
-part 3
e-------------------------------------------------------------------------------|
b-------------------------------------------------------------------------------|
g-------------------------------------------------------------------------------|
d-8------11--10--8--------------------------------------------------------------|
a-6---9---9---8--6--------------------------------------------------------------|
E-----7-------------------------------------------------------------------------|
-part 4
e-------------------------------------------------------------------------------|
b-------------------------------------------------------------------------------|
g-------------------------------------------------------------------------------|
d--8--7---5--4------------------------------------------------------------------|
a--6--5---3--2------------------------------------------------------------------|
E-------------------------------------------------------------------------------|
            
Tabs too difficult? Try these video lessons and learn fast.


comments powered by Disqus
↑ Back to top | Tablatures and chords are parodies/interpretations of the original songs. You may use it for private study, scholarship, research or language learning purposes only